  0
SECTION
  2
HEADER
  9
$ACADVER
  1
AC1014
  9
$ACADMAINTVER
 70
     9
  9
$DWGCODEPAGE
  3
ANSI_1252
  9
$INSBASE
 10
0.0
 20
0.0
 30
0.0
  9
$EXTMIN
 10
-37.326786
 20
-252.965729
 30
0.0
  9
$EXTMAX
 10
253.74852
 20
36.205898
 30
0.0
  9
$LIMMIN
 10
-37.326786
 20
-252.965729
  9
$LIMMAX
 10
253.74852
 20
36.205898
  9
$ORTHOMODE
 70
     0
  9
$REGENMODE
 70
     1
  9
$FILLMODE
 70
     1
  9
$QTEXTMODE
 70
     0
  9
$MIRRTEXT
 70
     1
  9
$DRAGMODE
 70
     2
  9
$LTSCALE
 40
1.0
  9
$OSMODE
 70
    37
  9
$ATTMODE
 70
     1
  9
$TEXTSIZE
 40
2.5
  9
$TRACEWID
 40
1.0
  9
$TEXTSTYLE
  7
STANDARD
  9
$CLAYER
  8
0
  9
$CELTYPE
  6
BYLAYER
  9
$CECOLOR
 62
   256
  9
$CELTSCALE
 40
1.0
  9
$DELOBJ
 70
     1
  9
$DISPSILH
 70
     0
  9
$DIMSCALE
 40
1.0
  9
$DIMASZ
 40
2.5
  9
$DIMEXO
 40
0.625
  9
$DIMDLI
 40
3.75
  9
$DIMRND
 40
0.0
  9
$DIMDLE
 40
0.0
  9
$DIMEXE
 40
1.25
  9
$DIMTP
 40
0.0
  9
$DIMTM
 40
0.0
  9
$DIMTXT
 40
2.5
  9
$DIMCEN
 40
2.5
  9
$DIMTSZ
 40
0.0
  9
$DIMTOL
 70
     0
  9
$DIMLIM
 70
     0
  9
$DIMTIH
 70
     0
  9
$DIMTOH
 70
     0
  9
$DIMSE1
 70
     0
  9
$DIMSE2
 70
     0
  9
$DIMTAD
 70
     1
  9
$DIMZIN
 70
     8
  9
$DIMBLK
  1

  9
$DIMASO
 70
     1
  9
$DIMSHO
 70
     1
  9
$DIMPOST
  1

  9
$DIMAPOST
  1

  9
$DIMALT
 70
     0
  9
$DIMALTD
 70
     3
  9
$DIMALTF
 40
0.03937
  9
$DIMLFAC
 40
1.0
  9
$DIMTOFL
 70
     1
  9
$DIMTVP
 40
0.0
  9
$DIMTIX
 70
     0
  9
$DIMSOXD
 70
     0
  9
$DIMSAH
 70
     0
  9
$DIMBLK1
  1

  9
$DIMBLK2
  1

  9
$DIMSTYLE
  2
ISO-25
  9
$DIMCLRD
 70
     0
  9
$DIMCLRE
 70
     0
  9
$DIMCLRT
 70
     0
  9
$DIMTFAC
 40
1.0
  9
$DIMGAP
 40
0.625
  9
$DIMJUST
 70
     0
  9
$DIMSD1
 70
     0
  9
$DIMSD2
 70
     0
  9
$DIMTOLJ
 70
     0
  9
$DIMTZIN
 70
     8
  9
$DIMALTZ
 70
     0
  9
$DIMALTTZ
 70
     0
  9
$DIMFIT
 70
     3
  9
$DIMUPT
 70
     0
  9
$DIMUNIT
 70
     2
  9
$DIMDEC
 70
     2
  9
$DIMTDEC
 70
     2
  9
$DIMALTU
 70
     2
  9
$DIMALTTD
 70
     3
  9
$DIMTXSTY
  7
STANDARD
  9
$DIMAUNIT
 70
     0
  9
$LUNITS
 70
     2
  9
$LUPREC
 70
     4
  9
$SKETCHINC
 40
1.0
  9
$FILLETRAD
 40
10.0
  9
$AUNITS
 70
     0
  9
$AUPREC
 70
     0
  9
$MENU
  1
.
  9
$ELEVATION
 40
0.0
  9
$PELEVATION
 40
0.0
  9
$THICKNESS
 40
0.0
  9
$LIMCHECK
 70
     0
  9
$CHAMFERA
 40
10.0
  9
$CHAMFERB
 40
10.0
  9
$CHAMFERC
 40
20.0
  9
$CHAMFERD
 40
0.0
  9
$SKPOLY
 70
     0
  9
$TDCREATE
 40
2456248.298256875
  9
$TDUPDATE
 40
2456248.298256887
  9
$TDINDWG
 40
0.0000000116
  9
$TDUSRTIMER
 40
0.0000000116
  9
$USRTIMER
 70
     1
  9
$ANGBASE
 50
0.0
  9
$ANGDIR
 70
     0
  9
$PDMODE
 70
     0
  9
$PDSIZE
 40
0.0
  9
$PLINEWID
 40
0.0
  9
$COORDS
 70
     1
  9
$SPLFRAME
 70
     0
  9
$SPLINETYPE
 70
     6
  9
$SPLINESEGS
 70
     8
  9
$ATTDIA
 70
     0
  9
$ATTREQ
 70
     1
  9
$HANDLING
 70
     1
  9
$HANDSEED
  5
26C
  9
$SURFTAB1
 70
     6
  9
$SURFTAB2
 70
     6
  9
$SURFTYPE
 70
     6
  9
$SURFU
 70
     6
  9
$SURFV
 70
     6
  9
$UCSNAME
  2

  9
$UCSORG
 10
0.0
 20
0.0
 30
0.0
  9
$UCSXDIR
 10
1.0
 20
0.0
 30
0.0
  9
$UCSYDIR
 10
0.0
 20
1.0
 30
0.0
  9
$PUCSNAME
  2

  9
$PUCSORG
 10
0.0
 20
0.0
 30
0.0
  9
$PUCSXDIR
 10
1.0
 20
0.0
 30
0.0
  9
$PUCSYDIR
 10
0.0
 20
1.0
 30
0.0
  9
$USERI1
 70
     0
  9
$USERI2
 70
     0
  9
$USERI3
 70
     0
  9
$USERI4
 70
     0
  9
$USERI5
 70
     0
  9
$USERR1
 40
0.0
  9
$USERR2
 40
0.0
  9
$USERR3
 40
0.0
  9
$USERR4
 40
0.0
  9
$USERR5
 40
0.0
  9
$WORLDVIEW
 70
     1
  9
$SHADEDGE
 70
     3
  9
$SHADEDIF
 70
    70
  9
$TILEMODE
 70
     1
  9
$MAXACTVP
 70
    64
  9
$PINSBASE
 10
0.0
 20
0.0
 30
0.0
  9
$PLIMCHECK
 70
     0
  9
$PEXTMIN
 10
1.000000E+20
 20
1.000000E+20
 30
1.000000E+20
  9
$PEXTMAX
 10
-1.000000E+20
 20
-1.000000E+20
 30
-1.000000E+20
  9
$PLIMMIN
 10
0.0
 20
0.0
  9
$PLIMMAX
 10
420.0
 20
297.0
  9
$UNITMODE
 70
     0
  9
$VISRETAIN
 70
     1
  9
$PLINEGEN
 70
     0
  9
$PSLTSCALE
 70
     1
  9
$TREEDEPTH
 70
  3020
  9
$PICKSTYLE
 70
     1
  9
$CMLSTYLE
  2
STANDARD
  9
$CMLJUST
 70
     0
  9
$CMLSCALE
 40
20.0
  9
$PROXYGRAPHICS
 70
     1
  9
$MEASUREMENT
 70
     1
  0
ENDSEC
  0
SECTION
  2
CLASSES
  0
CLASS
  1
ACDBDICTIONARYWDFLT
  2
AcDbDictionaryWithDefault
  3
ObjectDBX Classes
 90
        0
280
     0
281
     0
  0
CLASS
  1
VISUALSTYLE
  2
AcDbVisualStyle
  3
ObjectDBX Classes
 90
     4095
280
     0
281
     0
  0
CLASS
  1
SCALE
  2
AcDbScale
  3
ObjectDBX Classes
 90
     1153
280
     0
281
     0
  0
CLASS
  1
DICTIONARYVAR
  2
AcDbDictionaryVar
  3
ObjectDBX Classes
 90
        0
280
     0
281
     0
  0
CLASS
  1
XRECORD
  2
AcDbXrecord
  3
AutoCAD 2000
 90
        0
280
     0
281
     0
  0
CLASS
  1
LWPOLYLINE
  2
AcDbPolyline
  3
AutoCAD 2000
 90
        0
280
     0
281
     1
  0
CLASS
  1
HATCH
  2
AcDbHatch
  3
AutoCAD 2000
 90
        0
280
     0
281
     1
  0
CLASS
  1
ACDBPLACEHOLDER
  2
AcDbPlaceHolder
  3
ObjectDBX Classes
 90
        0
280
     0
281
     0
  0
CLASS
  1
LAYOUT
  2
AcDbLayout
  3
ObjectDBX Classes
 90
        0
280
     0
281
     0
  0
ENDSEC
  0
SECTION
  2
TABLES
  0
TABLE
  2
VPORT
  5
8
330
0
100
AcDbSymbolTable
 70
     1
  0
VPORT
  5
29
330
8
100
AcDbSymbolTableRecord
100
AcDbViewportTableRecord
  2
*ACTIVE
 70
     0
 10
0.0
 20
0.0
 11
1.0
 21
1.0
 12
344.186916
 22
148.5
 13
0.0
 23
0.0
 14
10.0
 24
10.0
 15
10.0
 25
10.0
 16
0.0
 26
0.0
 36
1.0
 17
0.0
 27
0.0
 37
0.0
 40
297.0
 41
1.972973
 42
50.0
 43
0.0
 44
0.0
 50
0.0
 51
0.0
 71
     0
 72
   100
 73
     1
 74
     3
 75
     0
 76
     0
 77
     0
 78
     0
  0
ENDTAB
  0
TABLE
  2
LTYPE
  5
5
330
0
100
AcDbSymbolTable
 70
     3
  0
LTYPE
  5
14
330
5
100
AcDbSymbolTableRecord
100
AcDbLinetypeTableRecord
  2
BYBLOCK
 70
     0
  3

 72
    65
 73
     0
 40
0.0
  0
LTYPE
  5
15
330
5
100
AcDbSymbolTableRecord
100
AcDbLinetypeTableRecord
  2
BYLAYER
 70
     0
  3

 72
    65
 73
     0
 40
0.0
  0
LTYPE
  5
16
330
5
100
AcDbSymbolTableRecord
100
AcDbLinetypeTableRecord
  2
CONTINUOUS
 70
     0
  3
Solid line
 72
    65
 73
     0
 40
0.0
  0
LTYPE
  5
47
330
5
100
AcDbSymbolTableRecord
100
AcDbLinetypeTableRecord
  2
DASHDOT
 70
     0
  3
Dash dot __ . __ . __ . __ . __ . __ . __ . __
 72
    65
 73
     4
 40
25.4
 49
12.7
 74
     0
 49
-6.35
 74
     0
 49
0.0
 74
     0
 49
-6.35
 74
     0
  0
LTYPE
  5
B8
330
5
100
AcDbSymbolTableRecord
100
AcDbLinetypeTableRecord
  2
HIDDEN2
 70
     0
  3
Hidden (.5x) _ _ _ _ _ _ _ _ _ _ _ _ _ _ _ _ _ 
 72
    65
 73
     2
 40
4.7625
 49
3.175
 74
     0
 49
-1.5875
 74
     0
  0
ENDTAB
  0
TABLE
  2
LAYER
  5
2
330
0
100
AcDbSymbolTable
 70
     2
  0
LAYER
  5
10
330
2
100
AcDbSymbolTableRecord
100
AcDbLayerTableRecord
  2
0
 70
     1
 62
    -7
  6
CONTINUOUS
  0
LAYER
  5
3B
330
2
100
AcDbSymbolTableRecord
100
AcDbLayerTableRecord
  2
109
 70
     0
 62
     7
  6
CONTINUOUS
  0
ENDTAB
  0
TABLE
  2
STYLE
  5
3
330
0
100
AcDbSymbolTable
 70
     3
  0
STYLE
  5
11
330
3
100
AcDbSymbolTableRecord
100
AcDbTextStyleTableRecord
  2
STANDARD
 70
     0
 40
0.0
 41
1.0
 50
0.0
 71
     0
 42
2.5
  3
txt
  4

  0
STYLE
  5
3C
330
3
100
AcDbSymbolTableRecord
100
AcDbTextStyleTableRecord
  2
DEFAULT
 70
     0
 40
0.0
 41
1.0
 50
0.0
 71
     0
 42
0.2
  3

  4

1001
ACAD
1000
txt
1071
        0
  0
STYLE
  5
3D
330
3
100
AcDbSymbolTableRecord
100
AcDbTextStyleTableRecord
  2
FSB
 70
     0
 40
0.0
 41
1.0
 50
0.0
 71
     0
 42
0.2
  3

  4

1001
ACAD
1000
Arial
1071
        0
  0
ENDTAB
  0
TABLE
  2
VIEW
  5
6
330
0
100
AcDbSymbolTable
 70
     0
  0
ENDTAB
  0
TABLE
  2
UCS
  5
7
330
0
100
AcDbSymbolTable
 70
     0
  0
ENDTAB
  0
TABLE
  2
APPID
  5
9
330
0
100
AcDbSymbolTable
 70
     1
  0
APPID
  5
12
330
9
100
AcDbSymbolTableRecord
100
AcDbRegAppTableRecord
  2
ACAD
 70
     0
  0
ENDTAB
  0
TABLE
  2
DIMSTYLE
  5
A
330
0
100
AcDbSymbolTable
 70
     3
  0
DIMSTYLE
105
27
330
A
100
AcDbSymbolTableRecord
100
AcDbDimStyleTableRecord
  2
ISO-25
 70
     0
  3

  4

  5

  6

  7

 40
1.0
 41
2.5
 42
0.625
 43
3.75
 44
1.25
 45
0.0
 46
0.0
 47
0.0
 48
0.0
140
2.5
141
2.5
142
0.0
143
0.03937
144
1.0
145
0.0
146
1.0
147
0.625
 71
     0
 72
     0
 73
     0
 74
     0
 75
     0
 76
     0
 77
     1
 78
     8
170
     0
171
     3
172
     1
173
     0
174
     0
175
     0
176
     0
177
     0
178
     0
270
     2
271
     2
272
     2
273
     2
274
     3
340
11
275
     0
280
     0
281
     0
282
     0
283
     0
284
     8
285
     0
286
     0
287
     3
288
     0
  0
DIMSTYLE
105
3E
330
A
100
AcDbSymbolTableRecord
100
AcDbDimStyleTableRecord
  2
DEFAULT
 70
     0
  3
<>
  4

  5
CLOSED
  6

  7

 40
1.0
 41
4.375
 42
1.05
 43
0.38
 44
2.1
 45
0.0
 46
0.0
 47
0.0
 48
0.0
140
3.5
141
0.09
142
0.0
143
25.4
144
1.0
145
0.0
146
0.4
147
1.75
 71
     0
 72
     0
 73
     0
 74
     0
 75
     0
 76
     0
 77
     1
 78
     8
170
     0
171
     2
172
     0
173
     0
174
     0
175
     0
176
     0
177
     0
178
     1
270
     2
271
     2
272
     3
273
     2
274
     2
340
3C
275
     0
280
     0
281
     0
282
     0
283
     1
284
     8
285
     0
286
     0
287
     3
288
     0
  0
DIMSTYLE
105
46
330
A
100
AcDbSymbolTableRecord
100
AcDbDimStyleTableRecord
  2
FSB
 70
     0
  3
<>
  4

  5
CLOSED
  6

  7

 40
1.0
 41
4.375
 42
1.05
 43
0.38
 44
2.1
 45
0.0
 46
0.0
 47
0.0
 48
0.0
140
3.5
141
0.09
142
0.0
143
25.4
144
1.0
145
0.0
146
0.7
147
1.05
 71
     0
 72
     0
 73
     0
 74
     0
 75
     0
 76
     0
 77
     1
 78
     8
170
     0
171
     2
172
     0
173
     0
174
     0
175
     0
176
     1
177
     1
178
     2
270
     2
271
     2
272
     3
273
     2
274
     2
340
3D
275
     0
280
     0
281
     0
282
     0
283
     1
284
     8
285
     0
286
     0
287
     3
288
     0
  0
ENDTAB
  0
TABLE
  2
BLOCK_RECORD
  5
1
330
0
100
AcDbSymbolTable
 70
     2
  0
BLOCK_RECORD
  5
1F
330
1
100
AcDbSymbolTableRecord
100
AcDbBlockTableRecord
  2
*MODEL_SPACE
  0
BLOCK_RECORD
  5
1B
330
1
100
AcDbSymbolTableRecord
100
AcDbBlockTableRecord
  2
*PAPER_SPACE
  0
BLOCK_RECORD
  5
3F
330
1
100
AcDbSymbolTableRecord
100
AcDbBlockTableRecord
  2
_CLOSED
  0
ENDTAB
  0
ENDSEC
  0
SECTION
  2
BLOCKS
  0
BLOCK
  5
20
330
1F
100
AcDbEntity
  8
0
100
AcDbBlockBegin
  2
*MODEL_SPACE
 70
     0
 10
0.0
 20
0.0
 30
0.0
  3
*MODEL_SPACE
  1

  0
ENDBLK
  5
21
330
1F
100
AcDbEntity
  8
0
100
AcDbBlockEnd
  0
BLOCK
  5
1C
330
1B
100
AcDbEntity
 67
     1
  8
0
100
AcDbBlockBegin
  2
*PAPER_SPACE
 70
     0
 10
0.0
 20
0.0
 30
0.0
  3
*PAPER_SPACE
  1

  0
ENDBLK
  5
1D
330
1B
100
AcDbEntity
 67
     1
  8
0
100
AcDbBlockEnd
  0
BLOCK
  5
40
330
3F
100
AcDbEntity
  8
0
100
AcDbBlockBegin
  2
_CLOSED
 70
     0
 10
0.0
 20
0.0
 30
0.0
  3
_CLOSED
  1

  0
LINE
  5
42
330
3F
100
AcDbEntity
  8
0
  6
BYBLOCK
 62
     0
100
AcDbLine
 10
-1.0
 20
0.166667
 30
0.0
 11
0.0
 21
0.0
 31
0.0
  0
LINE
  5
43
330
3F
100
AcDbEntity
  8
0
  6
BYBLOCK
 62
     0
100
AcDbLine
 10
0.0
 20
0.0
 30
0.0
 11
-1.0
 21
-0.166667
 31
0.0
  0
LINE
  5
44
330
3F
100
AcDbEntity
  8
0
  6
BYBLOCK
 62
     0
100
AcDbLine
 10
-1.0
 20
0.166667
 30
0.0
 11
-1.0
 21
-0.166667
 31
0.0
  0
LINE
  5
45
330
3F
100
AcDbEntity
  8
0
  6
BYBLOCK
 62
     0
100
AcDbLine
 10
0.0
 20
0.0
 30
0.0
 11
-1.0
 21
0.0
 31
0.0
  0
ENDBLK
  5
41
330
3F
100
AcDbEntity
  8
0
100
AcDbBlockEnd
  0
ENDSEC
  0
SECTION
  2
ENTITIES
  0
LINE
  5
48
330
1F
100
AcDbEntity
  8
109
  6
DASHDOT
 62
     1
100
AcDbLine
 10
36.673214
 20
0.0
 30
0.0
 11
-37.326786
 21
0.0
 31
0.0
  0
LINE
  5
49
330
1F
100
AcDbEntity
  8
109
  6
DASHDOT
 62
     1
100
AcDbLine
 10
0.0
 20
-36.794101
 30
0.0
 11
0.0
 21
36.205899
 31
0.0
  0
LINE
  5
4A
330
1F
100
AcDbEntity
  8
109
  6
CONTINUOUS
 62
     7
100
AcDbLine
 10
24.803268
 20
24.303325
 30
0.0
 11
24.803268
 21
-24.303355
 31
0.0
  0
LINE
  5
4B
330
1F
100
AcDbEntity
  8
109
  6
CONTINUOUS
 62
     7
100
AcDbLine
 10
24.303344
 20
-24.803279
 30
0.0
 11
-24.303336
 21
-24.803279
 31
0.0
  0
LINE
  5
4C
330
1F
100
AcDbEntity
  8
109
  6
CONTINUOUS
 62
     7
100
AcDbLine
 10
24.303344
 20
24.803249
 30
0.0
 11
-24.303336
 21
24.803249
 31
0.0
  0
LINE
  5
4D
330
1F
100
AcDbEntity
  8
109
  6
CONTINUOUS
 62
     7
100
AcDbLine
 10
-24.80326
 20
24.303325
 30
0.0
 11
-24.80326
 21
-24.303355
 31
0.0
  0
ARC
  5
4E
330
1F
100
AcDbEntity
  8
109
  6
CONTINUOUS
 62
     7
100
AcDbCircle
 10
24.303375
 20
24.303356
 30
0.0
 40
0.4998923192028815
100
AcDbArc
 50
359.996386
 51
90.003614
  0
ARC
  5
4F
330
1F
100
AcDbEntity
  8
109
  6
CONTINUOUS
 62
     7
100
AcDbCircle
 10
24.303375
 20
-24.303387
 30
0.0
 40
0.4998923192026079
100
AcDbArc
 50
269.996386
 51
0.003614
  0
ARC
  5
50
330
1F
100
AcDbEntity
  8
109
  6
CONTINUOUS
 62
     7
100
AcDbCircle
 10
-24.303368
 20
-24.303387
 30
0.0
 40
0.4998923192029152
100
AcDbArc
 50
179.996386
 51
270.003614
  0
ARC
  5
51
330
1F
100
AcDbEntity
  8
109
  6
CONTINUOUS
 62
     7
100
AcDbCircle
 10
-24.303368
 20
24.303356
 30
0.0
 40
0.4998923192031763
100
AcDbArc
 50
89.996386
 51
180.003614
  0
LINE
  5
52
330
1F
100
AcDbEntity
  8
109
  6
CONTINUOUS
 62
     7
100
AcDbLine
 10
-34.999996
 20
33.999985
 30
0.0
 11
-34.999996
 21
-34.000015
 31
0.0
  0
LINE
  5
53
330
1F
100
AcDbEntity
  8
109
  6
CONTINUOUS
 62
     7
100
AcDbLine
 10
34.000004
 20
34.999985
 30
0.0
 11
-33.999996
 21
34.999985
 31
0.0
  0
LINE
  5
54
330
1F
100
AcDbEntity
  8
109
  6
CONTINUOUS
 62
     7
100
AcDbLine
 10
35.000004
 20
-34.000015
 30
0.0
 11
35.000004
 21
33.999985
 31
0.0
  0
LINE
  5
55
330
1F
100
AcDbEntity
  8
109
  6
CONTINUOUS
 62
     7
100
AcDbLine
 10
-33.999996
 20
-35.000015
 30
0.0
 11
34.000004
 21
-35.000015
 31
0.0
  0
ARC
  5
56
330
1F
100
AcDbEntity
  8
109
  6
CONTINUOUS
 62
     7
100
AcDbCircle
 10
-33.999996
 20
-34.000015
 30
0.0
 40
1.0
100
AcDbArc
 50
180.0
 51
270.0
  0
ARC
  5
57
330
1F
100
AcDbEntity
  8
109
  6
CONTINUOUS
 62
     7
100
AcDbCircle
 10
-33.999996
 20
33.999985
 30
0.0
 40
1.0
100
AcDbArc
 50
90.0
 51
180.0
  0
ARC
  5
58
330
1F
100
AcDbEntity
  8
109
  6
CONTINUOUS
 62
     7
100
AcDbCircle
 10
34.000004
 20
33.999985
 30
0.0
 40
1.0
100
AcDbArc
 50
360.0
 51
90.0
  0
ARC
  5
59
330
1F
100
AcDbEntity
  8
109
  6
CONTINUOUS
 62
     7
100
AcDbCircle
 10
34.000004
 20
-34.000015
 30
0.0
 40
1.0
100
AcDbArc
 50
270.0
 51
360.0
  0
LINE
  5
5A
330
1F
100
AcDbEntity
  8
109
  6
CONTINUOUS
 62
     7
100
AcDbLine
 10
25.000004
 20
24.499985
 30
0.0
 11
25.000004
 21
-24.500015
 31
0.0
  0
LINE
  5
5B
330
1F
100
AcDbEntity
  8
109
  6
CONTINUOUS
 62
     7
100
AcDbLine
 10
24.500004
 20
-25.000015
 30
0.0
 11
-24.499996
 21
-25.000015
 31
0.0
  0
LINE
  5
5C
330
1F
100
AcDbEntity
  8
109
  6
CONTINUOUS
 62
     7
100
AcDbLine
 10
-24.499996
 20
24.999985
 30
0.0
 11
24.500004
 21
24.999985
 31
0.0
  0
LINE
  5
5D
330
1F
100
AcDbEntity
  8
109
  6
CONTINUOUS
 62
     7
100
AcDbLine
 10
-24.999996
 20
-24.500015
 30
0.0
 11
-24.999996
 21
24.499985
 31
0.0
  0
ARC
  5
5E
330
1F
100
AcDbEntity
  8
109
  6
CONTINUOUS
 62
     7
100
AcDbCircle
 10
24.500004
 20
24.499985
 30
0.0
 40
0.5
100
AcDbArc
 50
360.0
 51
90.0
  0
ARC
  5
5F
330
1F
100
AcDbEntity
  8
109
  6
CONTINUOUS
 62
     7
100
AcDbCircle
 10
24.500004
 20
-24.500015
 30
0.0
 40
0.5
100
AcDbArc
 50
270.0
 51
360.0
  0
ARC
  5
60
330
1F
100
AcDbEntity
  8
109
  6
CONTINUOUS
 62
     7
100
AcDbCircle
 10
-24.499996
 20
-24.500015
 30
0.0
 40
0.5
100
AcDbArc
 50
180.0
 51
270.0
  0
ARC
  5
61
330
1F
100
AcDbEntity
  8
109
  6
CONTINUOUS
 62
     7
100
AcDbCircle
 10
-24.499996
 20
24.499985
 30
0.0
 40
0.5
100
AcDbArc
 50
90.0
 51
180.0
  0
LINE
  5
62
330
1F
100
AcDbEntity
  8
109
  6
CONTINUOUS
 62
     7
100
AcDbLine
 10
232.999999
 20
31.74997
 30
0.0
 11
233.194793
 21
31.756772
 31
0.0
  0
LINE
  5
63
330
1F
100
AcDbEntity
  8
109
  6
CONTINUOUS
 62
     7
100
AcDbLine
 10
232.999999
 20
31.264413
 30
0.0
 11
244.999999
 21
31.554942
 31
0.0
  0
LINE
  5
64
330
1F
100
AcDbEntity
  8
109
  6
CONTINUOUS
 62
     7
100
AcDbLine
 10
233.0
 20
28.416103
 30
0.0
 11
245.0
 21
28.463167
 31
0.0
  0
LINE
  5
65
330
1F
100
AcDbEntity
  8
109
  6
CONTINUOUS
 62
     7
100
AcDbLine
 10
233.0
 20
24.62497
 30
0.0
 11
245.0
 21
24.468594
 31
0.0
  0
LINE
  5
66
330
1F
100
AcDbEntity
  8
109
  6
CONTINUOUS
 62
     7
100
AcDbLine
 10
244.999999
 20
32.062612
 30
0.0
 11
244.999999
 21
32.694174
 31
0.0
  0
LINE
  5
67
330
1F
100
AcDbEntity
  8
109
  6
CONTINUOUS
 62
     7
100
AcDbLine
 10
244.999999
 20
32.062612
 30
0.0
 11
244.999999
 21
31.554942
 31
0.0
  0
LINE
  5
68
330
1F
100
AcDbEntity
  8
109
  6
CONTINUOUS
 62
     7
100
AcDbLine
 10
245.0
 20
28.865784
 30
0.0
 11
245.0
 21
28.463167
 31
0.0
  0
LINE
  5
69
330
1F
100
AcDbEntity
  8
109
  6
CONTINUOUS
 62
     7
100
AcDbLine
 10
245.0
 20
24.731383
 30
0.0
 11
245.0
 21
24.468594
 31
0.0
  0
LINE
  5
6A
330
1F
100
AcDbEntity
  8
109
  6
CONTINUOUS
 62
     7
100
AcDbLine
 10
233.0
 20
13.99997
 30
0.0
 11
245.0
 21
14.419019
 31
0.0
  0
LINE
  5
6B
330
1F
100
AcDbEntity
  8
109
  6
CONTINUOUS
 62
     7
100
AcDbLine
 10
233.0
 20
9.99997
 30
0.0
 11
245.0
 21
9.58092
 31
0.0
  0
LINE
  5
6C
330
1F
100
AcDbEntity
  8
109
  6
CONTINUOUS
 62
     7
100
AcDbLine
 10
233.0
 20
5.99997
 30
0.0
 11
245.0
 21
6.419019
 31
0.0
  0
LINE
  5
6D
330
1F
100
AcDbEntity
  8
109
  6
CONTINUOUS
 62
     7
100
AcDbLine
 10
233.0
 20
1.99997
 30
0.0
 11
245.0
 21
1.58092
 31
0.0
  0
ARC
  5
6E
330
1F
100
AcDbEntity
  8
109
  6
CONTINUOUS
 62
     7
100
AcDbCircle
 10
1121.778839
 20
-11083.809903
 30
0.0
 40
11151.02703993898
100
AcDbArc
 50
94.509686
 51
94.571538
  0
ARC
  5
6F
330
1F
100
AcDbEntity
  8
109
  6
CONTINUOUS
 62
     7
100
AcDbCircle
 10
1128.969274
 20
-13347.987646
 30
0.0
 40
13409.21871637859
100
AcDbArc
 50
93.779822
 51
93.83121
  0
ARC
  5
70
330
1F
100
AcDbEntity
  8
109
  6
CONTINUOUS
 62
     7
100
AcDbCircle
 10
1513.828616
 20
-14932.257558
 30
0.0
 40
15016.82090776536
100
AcDbArc
 50
94.846918
 51
94.89287
  0
ARC
  5
71
330
1F
100
AcDbEntity
  8
109
  6
CONTINUOUS
 62
     7
100
AcDbCircle
 10
869.207068
 20
-16788.803851
 30
0.0
 40
16829.24972807446
100
AcDbArc
 50
92.125623
 51
92.166506
  0
ARC
  5
72
330
1F
100
AcDbEntity
  8
109
  6
CONTINUOUS
 62
     7
100
AcDbCircle
 10
1789.833796
 20
-20105.797001
 30
0.0
 40
20192.56160095745
100
AcDbArc
 50
94.387706
 51
94.421857
  0
LINE
  5
73
330
1F
100
AcDbEntity
  8
109
  6
CONTINUOUS
 62
     7
100
AcDbLine
 10
245.0
 20
24.731383
 30
0.0
 11
233.0
 21
24.62497
 31
0.0
  0
LINE
  5
74
330
1F
100
AcDbEntity
  8
109
  6
CONTINUOUS
 62
     7
100
AcDbLine
 10
245.0
 20
21.83585
 30
0.0
 11
233.0
 21
21.188141
 31
0.0
  0
LINE
  5
75
330
1F
100
AcDbEntity
  8
109
  6
CONTINUOUS
 62
     7
100
AcDbLine
 10
245.0
 20
17.58092
 30
0.0
 11
233.0
 21
17.99997
 31
0.0
  0
LINE
  5
76
330
1F
100
AcDbEntity
  8
109
  6
CONTINUOUS
 62
     7
100
AcDbLine
 10
232.999999
 20
31.74997
 30
0.0
 11
242.599848
 21
32.505494
 31
0.0
  0
LINE
  5
77
330
1F
100
AcDbEntity
  8
109
  6
CONTINUOUS
 62
     7
100
AcDbLine
 10
249.999999
 20
32.017425
 30
0.0
 11
244.999999
 21
32.1047
 31
0.0
  0
LINE
  5
78
330
1F
100
AcDbEntity
  8
109
  6
CONTINUOUS
 62
     7
100
AcDbLine
 10
233.0
 20
-6.00003
 30
0.0
 11
245.0
 21
-6.41908
 31
0.0
  0
LINE
  5
79
330
1F
100
AcDbEntity
  8
109
  6
CONTINUOUS
 62
     7
100
AcDbLine
 10
233.0
 20
-2.00003
 30
0.0
 11
245.0
 21
-1.580981
 31
0.0
  0
LINE
  5
7A
330
1F
100
AcDbEntity
  8
109
  6
CONTINUOUS
 62
     7
100
AcDbLine
 10
233.0
 20
-14.00003
 30
0.0
 11
245.0
 21
-14.41908
 31
0.0
  0
LINE
  5
7B
330
1F
100
AcDbEntity
  8
109
  6
CONTINUOUS
 62
     7
100
AcDbLine
 10
233.0
 20
-10.00003
 30
0.0
 11
245.0
 21
-9.580981
 31
0.0
  0
LINE
  5
7C
330
1F
100
AcDbEntity
  8
109
  6
CONTINUOUS
 62
     7
100
AcDbLine
 10
249.999999
 20
-32.017486
 30
0.0
 11
244.999999
 21
-32.104761
 31
0.0
  0
LINE
  5
7D
330
1F
100
AcDbEntity
  8
109
  6
CONTINUOUS
 62
     7
100
AcDbLine
 10
245.0
 20
-17.580981
 30
0.0
 11
233.0
 21
-18.00003
 31
0.0
  0
LINE
  5
7E
330
1F
100
AcDbEntity
  8
109
  6
CONTINUOUS
 62
     7
100
AcDbLine
 10
245.0
 20
-21.83591
 30
0.0
 11
233.0
 21
-21.188202
 31
0.0
  0
LINE
  5
7F
330
1F
100
AcDbEntity
  8
109
  6
CONTINUOUS
 62
     7
100
AcDbLine
 10
245.0
 20
-24.731444
 30
0.0
 11
233.0
 21
-24.62503
 31
0.0
  0
ARC
  5
80
330
1F
100
AcDbEntity
  8
109
  6
CONTINUOUS
 62
     7
100
AcDbCircle
 10
1789.833796
 20
20105.79694
 30
0.0
 40
20192.56160100103
100
AcDbArc
 50
265.578143
 51
265.612294
  0
ARC
  5
81
330
1F
100
AcDbEntity
  8
109
  6
CONTINUOUS
 62
     7
100
AcDbCircle
 10
869.207068
 20
16788.80379
 30
0.0
 40
16829.24972810276
100
AcDbArc
 50
267.833494
 51
267.874377
  0
ARC
  5
82
330
1F
100
AcDbEntity
  8
109
  6
CONTINUOUS
 62
     7
100
AcDbCircle
 10
1513.828616
 20
14932.257498
 30
0.0
 40
15016.82090782859
100
AcDbArc
 50
265.10713
 51
265.153082
  0
ARC
  5
83
330
1F
100
AcDbEntity
  8
109
  6
CONTINUOUS
 62
     7
100
AcDbCircle
 10
1128.969274
 20
13347.987585
 30
0.0
 40
13409.21871641158
100
AcDbArc
 50
266.16879
 51
266.220178
  0
LINE
  5
84
330
1F
100
AcDbEntity
  8
109
  6
CONTINUOUS
 62
     7
100
AcDbLine
 10
244.999999
 20
-32.062673
 30
0.0
 11
244.999999
 21
-32.694235
 31
0.0
  0
ARC
  5
85
330
1F
100
AcDbEntity
  8
109
  6
CONTINUOUS
 62
     7
100
AcDbCircle
 10
1121.778839
 20
11083.809842
 30
0.0
 40
11151.02703994888
100
AcDbArc
 50
265.428462
 51
265.490314
  0
LINE
  5
86
330
1F
100
AcDbEntity
  8
109
  6
CONTINUOUS
 62
     7
100
AcDbLine
 10
232.999999
 20
-31.75003
 30
0.0
 11
242.599848
 21
-32.505555
 31
0.0
  0
LINE
  5
87
330
1F
100
AcDbEntity
  8
109
  6
CONTINUOUS
 62
     7
100
AcDbLine
 10
232.999999
 20
-31.75003
 30
0.0
 11
233.194793
 21
-31.756833
 31
0.0
  0
LINE
  5
88
330
1F
100
AcDbEntity
  8
109
  6
CONTINUOUS
 62
     7
100
AcDbLine
 10
232.999999
 20
-31.264473
 30
0.0
 11
244.999999
 21
-31.555003
 31
0.0
  0
LINE
  5
89
330
1F
100
AcDbEntity
  8
109
  6
CONTINUOUS
 62
     7
100
AcDbLine
 10
244.999999
 20
-32.062673
 30
0.0
 11
244.999999
 21
-31.555003
 31
0.0
  0
LINE
  5
8A
330
1F
100
AcDbEntity
  8
109
  6
CONTINUOUS
 62
     7
100
AcDbLine
 10
233.0
 20
-28.416164
 30
0.0
 11
245.0
 21
-28.463228
 31
0.0
  0
LINE
  5
8B
330
1F
100
AcDbEntity
  8
109
  6
CONTINUOUS
 62
     7
100
AcDbLine
 10
245.0
 20
-28.865845
 30
0.0
 11
245.0
 21
-28.463228
 31
0.0
  0
LINE
  5
8C
330
1F
100
AcDbEntity
  8
109
  6
CONTINUOUS
 62
     7
100
AcDbLine
 10
233.0
 20
-24.62503
 30
0.0
 11
245.0
 21
-24.468654
 31
0.0
  0
LINE
  5
8D
330
1F
100
AcDbEntity
  8
109
  6
CONTINUOUS
 62
     7
100
AcDbLine
 10
245.0
 20
-24.731444
 30
0.0
 11
245.0
 21
-24.468654
 31
0.0
  0
LINE
  5
8E
330
1F
100
AcDbEntity
  8
109
  6
CONTINUOUS
 62
     7
100
AcDbLine
 10
250.0
 20
-35.00003
 30
0.0
 11
252.0
 21
-35.00003
 31
0.0
  0
LINE
  5
8F
330
1F
100
AcDbEntity
  8
109
  6
CONTINUOUS
 62
     7
100
AcDbLine
 10
250.0
 20
34.99997
 30
0.0
 11
252.0
 21
34.99997
 31
0.0
  0
LINE
  5
90
330
1F
100
AcDbEntity
  8
109
  6
CONTINUOUS
 62
     7
100
AcDbLine
 10
24.625004
 20
-233.0
 30
0.0
 11
24.468628
 21
-245.0
 31
0.0
  0
LINE
  5
91
330
1F
100
AcDbEntity
  8
109
  6
CONTINUOUS
 62
     7
100
AcDbLine
 10
-24.624996
 20
-233.0
 30
0.0
 11
-24.46862
 21
-245.0
 31
0.0
  0
LINE
  5
92
330
1F
100
AcDbEntity
  8
109
  6
CONTINUOUS
 62
     7
100
AcDbLine
 10
-28.416129
 20
-233.0
 30
0.0
 11
-28.463194
 21
-245.0
 31
0.0
  0
LINE
  5
93
330
1F
100
AcDbEntity
  8
109
  6
CONTINUOUS
 62
     7
100
AcDbLine
 10
-31.264439
 20
-232.999999
 30
0.0
 11
-31.554969
 21
-244.999999
 31
0.0
  0
LINE
  5
94
330
1F
100
AcDbEntity
  8
109
  6
CONTINUOUS
 62
     7
100
AcDbLine
 10
-31.749996
 20
-232.999999
 30
0.0
 11
-31.756799
 21
-233.194793
 31
0.0
  0
LINE
  5
95
330
1F
100
AcDbEntity
  8
109
  6
CONTINUOUS
 62
     7
100
AcDbLine
 10
31.750004
 20
-232.999999
 30
0.0
 11
31.756806
 21
-233.194793
 31
0.0
  0
LINE
  5
96
330
1F
100
AcDbEntity
  8
109
  6
CONTINUOUS
 62
     7
100
AcDbLine
 10
31.264447
 20
-232.999999
 30
0.0
 11
31.554977
 21
-244.999999
 31
0.0
  0
LINE
  5
97
330
1F
100
AcDbEntity
  8
109
  6
CONTINUOUS
 62
     7
100
AcDbLine
 10
28.416137
 20
-233.0
 30
0.0
 11
28.463202
 21
-245.0
 31
0.0
  0
LINE
  5
98
330
1F
100
AcDbEntity
  8
109
  6
CONTINUOUS
 62
     7
100
AcDbLine
 10
-31.749996
 20
-232.999999
 30
0.0
 11
-32.505521
 21
-242.599848
 31
0.0
  0
LINE
  5
99
330
1F
100
AcDbEntity
  8
109
  6
CONTINUOUS
 62
     7
100
AcDbLine
 10
-17.580947
 20
-245.0
 30
0.0
 11
-17.999996
 21
-233.0
 31
0.0
  0
LINE
  5
9A
330
1F
100
AcDbEntity
  8
109
  6
CONTINUOUS
 62
     7
100
AcDbLine
 10
-21.835876
 20
-245.0
 30
0.0
 11
-21.188168
 21
-233.0
 31
0.0
  0
LINE
  5
9B
330
1F
100
AcDbEntity
  8
109
  6
CONTINUOUS
 62
     7
100
AcDbLine
 10
-24.731409
 20
-245.0
 30
0.0
 11
-24.624996
 21
-233.0
 31
0.0
  0
ARC
  5
9C
330
1F
100
AcDbEntity
  8
109
  6
CONTINUOUS
 62
     7
100
AcDbCircle
 10
20105.796974
 20
-1789.833796
 30
0.0
 40
20192.56160079534
100
AcDbArc
 50
175.578143
 51
175.612294
  0
ARC
  5
9D
330
1F
100
AcDbEntity
  8
109
  6
CONTINUOUS
 62
     7
100
AcDbCircle
 10
16788.803825
 20
-869.207068
 30
0.0
 40
16829.24972832585
100
AcDbArc
 50
177.833494
 51
177.874377
  0
ARC
  5
9E
330
1F
100
AcDbEntity
  8
109
  6
CONTINUOUS
 62
     7
100
AcDbCircle
 10
14932.257532
 20
-1513.828616
 30
0.0
 40
15016.82090780463
100
AcDbArc
 50
175.10713
 51
175.153082
  0
ARC
  5
9F
330
1F
100
AcDbEntity
  8
109
  6
CONTINUOUS
 62
     7
100
AcDbCircle
 10
13347.987619
 20
-1128.969274
 30
0.0
 40
13409.21871664261
100
AcDbArc
 50
176.16879
 51
176.220178
  0
ARC
  5
A0
330
1F
100
AcDbEntity
  8
109
  6
CONTINUOUS
 62
     7
100
AcDbCircle
 10
11083.809877
 20
-1121.778839
 30
0.0
 40
11151.02704023115
100
AcDbArc
 50
175.428462
 51
175.490314
  0
LINE
  5
A1
330
1F
100
AcDbEntity
  8
109
  6
CONTINUOUS
 62
     7
100
AcDbLine
 10
14.000004
 20
-233.0
 30
0.0
 11
14.419053
 21
-245.0
 31
0.0
  0
LINE
  5
A2
330
1F
100
AcDbEntity
  8
109
  6
CONTINUOUS
 62
     7
100
AcDbLine
 10
10.000004
 20
-233.0
 30
0.0
 11
9.580955
 21
-245.0
 31
0.0
  0
LINE
  5
A3
330
1F
100
AcDbEntity
  8
109
  6
CONTINUOUS
 62
     7
100
AcDbLine
 10
6.000004
 20
-233.0
 30
0.0
 11
6.419053
 21
-245.0
 31
0.0
  0
LINE
  5
A4
330
1F
100
AcDbEntity
  8
109
  6
CONTINUOUS
 62
     7
100
AcDbLine
 10
2.000004
 20
-233.0
 30
0.0
 11
1.580955
 21
-245.0
 31
0.0
  0
LINE
  5
A5
330
1F
100
AcDbEntity
  8
109
  6
CONTINUOUS
 62
     7
100
AcDbLine
 10
-1.999996
 20
-233.0
 30
0.0
 11
-1.580947
 21
-245.0
 31
0.0
  0
LINE
  5
A6
330
1F
100
AcDbEntity
  8
109
  6
CONTINUOUS
 62
     7
100
AcDbLine
 10
-5.999996
 20
-233.0
 30
0.0
 11
-6.419045
 21
-245.0
 31
0.0
  0
LINE
  5
A7
330
1F
100
AcDbEntity
  8
109
  6
CONTINUOUS
 62
     7
100
AcDbLine
 10
-9.999996
 20
-233.0
 30
0.0
 11
-9.580947
 21
-245.0
 31
0.0
  0
LINE
  5
A8
330
1F
100
AcDbEntity
  8
109
  6
CONTINUOUS
 62
     7
100
AcDbLine
 10
-13.999996
 20
-233.0
 30
0.0
 11
-14.419045
 21
-245.0
 31
0.0
  0
LINE
  5
A9
330
1F
100
AcDbEntity
  8
109
  6
CONTINUOUS
 62
     7
100
AcDbLine
 10
24.731417
 20
-245.0
 30
0.0
 11
24.625004
 21
-233.0
 31
0.0
  0
LINE
  5
AA
330
1F
100
AcDbEntity
  8
109
  6
CONTINUOUS
 62
     7
100
AcDbLine
 10
21.835884
 20
-245.0
 30
0.0
 11
21.188175
 21
-233.0
 31
0.0
  0
LINE
  5
AB
330
1F
100
AcDbEntity
  8
109
  6
CONTINUOUS
 62
     7
100
AcDbLine
 10
17.580955
 20
-245.0
 30
0.0
 11
18.000004
 21
-233.0
 31
0.0
  0
ARC
  5
AC
330
1F
100
AcDbEntity
  8
109
  6
CONTINUOUS
 62
     7
100
AcDbCircle
 10
-11083.809869
 20
-1121.778839
 30
0.0
 40
11151.02704024326
100
AcDbArc
 50
4.509686
 51
4.571538
  0
ARC
  5
AD
330
1F
100
AcDbEntity
  8
109
  6
CONTINUOUS
 62
     7
100
AcDbCircle
 10
-13347.987612
 20
-1128.969274
 30
0.0
 40
13409.2187167142
100
AcDbArc
 50
3.779822
 51
3.83121
  0
ARC
  5
AE
330
1F
100
AcDbEntity
  8
109
  6
CONTINUOUS
 62
     7
100
AcDbCircle
 10
-14932.257524
 20
-1513.828616
 30
0.0
 40
15016.82090789662
100
AcDbArc
 50
4.846918
 51
4.89287
  0
ARC
  5
AF
330
1F
100
AcDbEntity
  8
109
  6
CONTINUOUS
 62
     7
100
AcDbCircle
 10
-16788.803817
 20
-869.207068
 30
0.0
 40
16829.2497283542
100
AcDbArc
 50
2.125623
 51
2.166506
  0
ARC
  5
B0
330
1F
100
AcDbEntity
  8
109
  6
CONTINUOUS
 62
     7
100
AcDbCircle
 10
-20105.796967
 20
-1789.833796
 30
0.0
 40
20192.5616007954
100
AcDbArc
 50
4.387706
 51
4.421857
  0
LINE
  5
B1
330
1F
100
AcDbEntity
  8
109
  6
CONTINUOUS
 62
     7
100
AcDbLine
 10
31.750004
 20
-232.999999
 30
0.0
 11
32.505528
 21
-242.599848
 31
0.0
  0
LINE
  5
B2
330
1F
100
AcDbEntity
  8
109
  6
CONTINUOUS
 62
     7
100
AcDbLine
 10
-32.017451
 20
-249.999999
 30
0.0
 11
-32.104727
 21
-244.999999
 31
0.0
  0
LINE
  5
B3
330
1F
100
AcDbEntity
  8
109
  6
CONTINUOUS
 62
     7
100
AcDbLine
 10
32.017459
 20
-249.999999
 30
0.0
 11
32.104734
 21
-244.999999
 31
0.0
  0
LINE
  5
B4
330
1F
100
AcDbEntity
  8
109
  6
CONTINUOUS
 62
     7
100
AcDbLine
 10
-34.999996
 20
-250.0
 30
0.0
 11
-34.999996
 21
-252.0
 31
0.0
  0
LINE
  5
B5
330
1F
100
AcDbEntity
  8
109
  6
CONTINUOUS
 62
     7
100
AcDbLine
 10
35.000004
 20
-250.0
 30
0.0
 11
35.000004
 21
-252.0
 31
0.0
  0
LINE
  5
B6
330
1F
100
AcDbEntity
  8
109
  6
DASHDOT
 62
     1
100
AcDbLine
 10
231.748521
 20
0.0
 30
0.0
 11
253.748521
 21
0.0
 31
0.0
  0
LINE
  5
B7
330
1F
100
AcDbEntity
  8
109
  6
DASHDOT
 62
     1
100
AcDbLine
 10
0.0
 20
-231.965726
 30
0.0
 11
0.0
 21
-252.965726
 31
0.0
  0
LINE
  5
B9
330
1F
100
AcDbEntity
  8
109
  6
HIDDEN2
 62
     1
100
AcDbLine
 10
250.000001
 20
25.082544
 30
0.0
 11
234.000001
 21
24.803264
 31
0.0
  0
LINE
  5
BA
330
1F
100
AcDbEntity
  8
109
  6
HIDDEN2
 62
     1
100
AcDbLine
 10
249.999999
 20
-25.082545
 30
0.0
 11
233.999999
 21
-24.803264
 31
0.0
  0
LINE
  5
BB
330
1F
100
AcDbEntity
  8
109
  6
HIDDEN2
 62
     1
100
AcDbLine
 10
234.000001
 20
24.803264
 30
0.0
 11
233.999999
 21
-24.803264
 31
0.0
  0
LINE
  5
BC
330
1F
100
AcDbEntity
  8
109
  6
HIDDEN2
 62
     1
100
AcDbLine
 10
-30.408112
 20
24.468613
 30
0.0
 11
-31.052437
 21
23.113602
 31
0.0
  0
LINE
  5
BD
330
1F
100
AcDbEntity
  8
109
  6
HIDDEN2
 62
     1
100
AcDbLine
 10
-31.052437
 20
23.113602
 30
0.0
 11
-31.554977
 21
21.699844
 31
0.0
  0
LINE
  5
BE
330
1F
100
AcDbEntity
  8
109
  6
HIDDEN2
 62
     1
100
AcDbLine
 10
-32.168831
 20
17.580948
 30
0.0
 11
-32.169052
 21
17.499985
 31
0.0
  0
LINE
  5
BF
330
1F
100
AcDbEntity
  8
109
  6
HIDDEN2
 62
     1
100
AcDbLine
 10
-32.169048
 20
17.499985
 30
0.0
 11
-32.169048
 21
14.419052
 31
0.0
  0
LINE
  5
C0
330
1F
100
AcDbEntity
  8
109
  6
HIDDEN2
 62
     1
100
AcDbLine
 10
-32.169048
 20
9.580948
 30
0.0
 11
-32.169048
 21
6.419052
 31
0.0
  0
LINE
  5
C1
330
1F
100
AcDbEntity
  8
109
  6
HIDDEN2
 62
     1
100
AcDbLine
 10
-32.169048
 20
1.580948
 30
0.0
 11
-32.169048
 21
-1.580948
 31
0.0
  0
LINE
  5
C2
330
1F
100
AcDbEntity
  8
109
  6
HIDDEN2
 62
     1
100
AcDbLine
 10
-32.169048
 20
-6.419052
 30
0.0
 11
-32.169048
 21
-9.580948
 31
0.0
  0
LINE
  5
C3
330
1F
100
AcDbEntity
  8
109
  6
HIDDEN2
 62
     1
100
AcDbLine
 10
-32.169048
 20
-14.419052
 30
0.0
 11
-32.169048
 21
-17.500015
 31
0.0
  0
LINE
  5
C4
330
1F
100
AcDbEntity
  8
109
  6
HIDDEN2
 62
     1
100
AcDbLine
 10
-32.169052
 20
-17.500015
 30
0.0
 11
-32.168831
 21
-17.580978
 31
0.0
  0
LINE
  5
C5
330
1F
100
AcDbEntity
  8
109
  6
HIDDEN2
 62
     1
100
AcDbLine
 10
-31.554977
 20
-21.699875
 30
0.0
 11
-31.052437
 21
-23.113632
 31
0.0
  0
LINE
  5
C6
330
1F
100
AcDbEntity
  8
109
  6
HIDDEN2
 62
     1
100
AcDbLine
 10
-31.052437
 20
-23.113632
 30
0.0
 11
-30.408112
 21
-24.468643
 31
0.0
  0
LINE
  5
C7
330
1F
100
AcDbEntity
  8
109
  6
HIDDEN2
 62
     1
100
AcDbLine
 10
-28.463203
 20
-27.246262
 30
0.0
 11
-27.872589
 21
-27.872604
 31
0.0
  0
LINE
  5
C8
330
1F
100
AcDbEntity
  8
109
  6
HIDDEN2
 62
     1
100
AcDbLine
 10
-27.872589
 20
-27.872604
 30
0.0
 11
-27.24625
 21
-28.463211
 31
0.0
  0
LINE
  5
C9
330
1F
100
AcDbEntity
  8
109
  6
HIDDEN2
 62
     1
100
AcDbLine
 10
-24.468624
 20
-30.408127
 30
0.0
 11
-23.113605
 21
-31.052444
 31
0.0
  0
LINE
  5
CA
330
1F
100
AcDbEntity
  8
109
  6
HIDDEN2
 62
     1
100
AcDbLine
 10
-23.113605
 20
-31.052444
 30
0.0
 11
-21.699856
 21
-31.554977
 31
0.0
  0
LINE
  5
CB
330
1F
100
AcDbEntity
  8
109
  6
HIDDEN2
 62
     1
100
AcDbLine
 10
-17.580952
 20
-32.168839
 30
0.0
 11
-17.500004
 21
-32.169052
 31
0.0
  0
LINE
  5
CC
330
1F
100
AcDbEntity
  8
109
  6
HIDDEN2
 62
     1
100
AcDbLine
 10
-17.500004
 20
-32.169052
 30
0.0
 11
-14.419048
 21
-32.169052
 31
0.0
  0
LINE
  5
CD
330
1F
100
AcDbEntity
  8
109
  6
HIDDEN2
 62
     1
100
AcDbLine
 10
-9.580952
 20
-32.169052
 30
0.0
 11
-6.419048
 21
-32.169052
 31
0.0
  0
LINE
  5
CE
330
1F
100
AcDbEntity
  8
109
  6
HIDDEN2
 62
     1
100
AcDbLine
 10
-6.419048
 20
32.169052
 30
0.0
 11
-9.580952
 21
32.169052
 31
0.0
  0
LINE
  5
CF
330
1F
100
AcDbEntity
  8
109
  6
HIDDEN2
 62
     1
100
AcDbLine
 10
-14.419048
 20
32.169052
 30
0.0
 11
-17.500004
 21
32.169052
 31
0.0
  0
LINE
  5
D0
330
1F
100
AcDbEntity
  8
109
  6
HIDDEN2
 62
     1
100
AcDbLine
 10
-17.500004
 20
32.169022
 30
0.0
 11
-17.580952
 21
32.168808
 31
0.0
  0
LINE
  5
D1
330
1F
100
AcDbEntity
  8
109
  6
HIDDEN2
 62
     1
100
AcDbLine
 10
-21.699856
 20
31.554947
 30
0.0
 11
-23.113605
 21
31.052414
 31
0.0
  0
LINE
  5
D2
330
1F
100
AcDbEntity
  8
109
  6
HIDDEN2
 62
     1
100
AcDbLine
 10
-23.113605
 20
31.052414
 30
0.0
 11
-24.468624
 21
30.408096
 31
0.0
  0
LINE
  5
D3
330
1F
100
AcDbEntity
  8
109
  6
HIDDEN2
 62
     1
100
AcDbLine
 10
-27.24625
 20
28.463181
 30
0.0
 11
-27.872589
 21
27.872574
 31
0.0
  0
LINE
  5
D4
330
1F
100
AcDbEntity
  8
109
  6
HIDDEN2
 62
     1
100
AcDbLine
 10
-27.872589
 20
27.872574
 30
0.0
 11
-28.463203
 21
27.246231
 31
0.0
  0
LINE
  5
D5
330
1F
100
AcDbEntity
  8
109
  6
HIDDEN2
 62
     1
100
AcDbLine
 10
-17.500004
 20
-32.104752
 30
0.0
 11
-18.931515
 21
-32.034409
 31
0.0
  0
LINE
  5
D6
330
1F
100
AcDbEntity
  8
109
  6
HIDDEN2
 62
     1
100
AcDbLine
 10
-18.931515
 20
-32.034409
 30
0.0
 11
-20.349247
 21
-31.824112
 31
0.0
  0
LINE
  5
D7
330
1F
100
AcDbEntity
  8
109
  6
HIDDEN2
 62
     1
100
AcDbLine
 10
-20.349247
 20
-31.824112
 30
0.0
 11
-21.739536
 21
-31.475876
 31
0.0
  0
LINE
  5
D8
330
1F
100
AcDbEntity
  8
109
  6
HIDDEN2
 62
     1
100
AcDbLine
 10
-21.739536
 20
-31.475876
 30
0.0
 11
-23.088993
 21
-30.993027
 31
0.0
  0
LINE
  5
D9
330
1F
100
AcDbEntity
  8
109
  6
HIDDEN2
 62
     1
100
AcDbLine
 10
-23.088993
 20
-30.993027
 30
0.0
 11
-24.384624
 21
-30.380234
 31
0.0
  0
LINE
  5
DA
330
1F
100
AcDbEntity
  8
109
  6
HIDDEN2
 62
     1
100
AcDbLine
 10
-24.384624
 20
-30.380234
 30
0.0
 11
-25.613956
 21
-29.643417
 31
0.0
  0
LINE
  5
DB
330
1F
100
AcDbEntity
  8
109
  6
HIDDEN2
 62
     1
100
AcDbLine
 10
-25.613956
 20
-29.643417
 30
0.0
 11
-26.765148
 21
-28.789627
 31
0.0
  0
LINE
  5
DC
330
1F
100
AcDbEntity
  8
109
  6
HIDDEN2
 62
     1
100
AcDbLine
 10
-26.765148
 20
-28.789627
 30
0.0
 11
-27.827106
 21
-27.827133
 31
0.0
  0
LINE
  5
DD
330
1F
100
AcDbEntity
  8
109
  6
HIDDEN2
 62
     1
100
AcDbLine
 10
-27.827106
 20
-27.827133
 30
0.0
 11
-28.789612
 21
-26.765152
 31
0.0
  0
LINE
  5
DE
330
1F
100
AcDbEntity
  8
109
  6
HIDDEN2
 62
     1
100
AcDbLine
 10
-28.789612
 20
-26.765152
 30
0.0
 11
-29.643394
 21
-25.613968
 31
0.0
  0
LINE
  5
DF
330
1F
100
AcDbEntity
  8
109
  6
HIDDEN2
 62
     1
100
AcDbLine
 10
-29.643394
 20
-25.613968
 30
0.0
 11
-30.380226
 21
-24.384628
 31
0.0
  0
LINE
  5
E0
330
1F
100
AcDbEntity
  8
109
  6
HIDDEN2
 62
     1
100
AcDbLine
 10
-30.380226
 20
-24.384628
 30
0.0
 11
-30.993015
 21
-23.089005
 31
0.0
  0
LINE
  5
E1
330
1F
100
AcDbEntity
  8
109
  6
HIDDEN2
 62
     1
100
AcDbLine
 10
-30.993015
 20
-23.089005
 30
0.0
 11
-31.475861
 21
-21.739548
 31
0.0
  0
LINE
  5
E2
330
1F
100
AcDbEntity
  8
109
  6
HIDDEN2
 62
     1
100
AcDbLine
 10
-31.475861
 20
-21.739548
 30
0.0
 11
-31.824108
 21
-20.349258
 31
0.0
  0
LINE
  5
E3
330
1F
100
AcDbEntity
  8
109
  6
HIDDEN2
 62
     1
100
AcDbLine
 10
-31.824108
 20
-20.349258
 30
0.0
 11
-32.034409
 21
-18.931534
 31
0.0
  0
LINE
  5
E4
330
1F
100
AcDbEntity
  8
109
  6
HIDDEN2
 62
     1
100
AcDbLine
 10
-32.034409
 20
-18.931534
 30
0.0
 11
-32.104736
 21
-17.500015
 31
0.0
  0
LINE
  5
E5
330
1F
100
AcDbEntity
  8
109
  6
HIDDEN2
 62
     1
100
AcDbLine
 10
-32.104729
 20
-17.500015
 30
0.0
 11
-32.104729
 21
17.499985
 31
0.0
  0
LINE
  5
E6
330
1F
100
AcDbEntity
  8
109
  6
HIDDEN2
 62
     1
100
AcDbLine
 10
-32.104733
 20
17.499985
 30
0.0
 11
-32.034409
 21
18.931503
 31
0.0
  0
LINE
  5
E7
330
1F
100
AcDbEntity
  8
109
  6
HIDDEN2
 62
     1
100
AcDbLine
 10
-32.034409
 20
18.931503
 30
0.0
 11
-31.824108
 21
20.349228
 31
0.0
  0
LINE
  5
E8
330
1F
100
AcDbEntity
  8
109
  6
HIDDEN2
 62
     1
100
AcDbLine
 10
-31.824108
 20
20.349228
 30
0.0
 11
-31.475861
 21
21.739517
 31
0.0
  0
LINE
  5
E9
330
1F
100
AcDbEntity
  8
109
  6
HIDDEN2
 62
     1
100
AcDbLine
 10
-31.475861
 20
21.739517
 30
0.0
 11
-30.993015
 21
23.088974
 31
0.0
  0
LINE
  5
EA
330
1F
100
AcDbEntity
  8
109
  6
HIDDEN2
 62
     1
100
AcDbLine
 10
-30.993015
 20
23.088974
 30
0.0
 11
-30.380226
 21
24.384598
 31
0.0
  0
LINE
  5
EB
330
1F
100
AcDbEntity
  8
109
  6
HIDDEN2
 62
     1
100
AcDbLine
 10
-30.380226
 20
24.384598
 30
0.0
 11
-29.643394
 21
25.613937
 31
0.0
  0
LINE
  5
EC
330
1F
100
AcDbEntity
  8
109
  6
HIDDEN2
 62
     1
100
AcDbLine
 10
-29.643394
 20
25.613937
 30
0.0
 11
-28.789612
 21
26.765121
 31
0.0
  0
LINE
  5
ED
330
1F
100
AcDbEntity
  8
109
  6
HIDDEN2
 62
     1
100
AcDbLine
 10
-28.789612
 20
26.765121
 30
0.0
 11
-27.827106
 21
27.827103
 31
0.0
  0
LINE
  5
EE
330
1F
100
AcDbEntity
  8
109
  6
HIDDEN2
 62
     1
100
AcDbLine
 10
-27.827106
 20
27.827103
 30
0.0
 11
-26.765148
 21
28.789597
 31
0.0
  0
LINE
  5
EF
330
1F
100
AcDbEntity
  8
109
  6
HIDDEN2
 62
     1
100
AcDbLine
 10
-26.765148
 20
28.789597
 30
0.0
 11
-25.613956
 21
29.643387
 31
0.0
  0
LINE
  5
F0
330
1F
100
AcDbEntity
  8
109
  6
HIDDEN2
 62
     1
100
AcDbLine
 10
-25.613956
 20
29.643387
 30
0.0
 11
-24.384624
 21
30.380203
 31
0.0
  0
LINE
  5
F1
330
1F
100
AcDbEntity
  8
109
  6
HIDDEN2
 62
     1
100
AcDbLine
 10
-24.384624
 20
30.380203
 30
0.0
 11
-23.088993
 21
30.992996
 31
0.0
  0
LINE
  5
F2
330
1F
100
AcDbEntity
  8
109
  6
HIDDEN2
 62
     1
100
AcDbLine
 10
-23.088993
 20
30.992996
 30
0.0
 11
-21.739536
 21
31.475845
 31
0.0
  0
LINE
  5
F3
330
1F
100
AcDbEntity
  8
109
  6
HIDDEN2
 62
     1
100
AcDbLine
 10
-21.739536
 20
31.475845
 30
0.0
 11
-20.349247
 21
31.824081
 31
0.0
  0
LINE
  5
F4
330
1F
100
AcDbEntity
  8
109
  6
HIDDEN2
 62
     1
100
AcDbLine
 10
-20.349247
 20
31.824081
 30
0.0
 11
-18.931515
 21
32.034378
 31
0.0
  0
LINE
  5
F5
330
1F
100
AcDbEntity
  8
109
  6
HIDDEN2
 62
     1
100
AcDbLine
 10
-18.931515
 20
32.034378
 30
0.0
 11
-17.500004
 21
32.104721
 31
0.0
  0
LINE
  5
F6
330
1F
100
AcDbEntity
  8
109
  6
HIDDEN2
 62
     1
100
AcDbLine
 10
-14.419048
 20
-32.169052
 30
0.0
 11
-14.419048
 21
-32.694412
 31
0.0
  0
LINE
  5
F7
330
1F
100
AcDbEntity
  8
109
  6
HIDDEN2
 62
     1
100
AcDbLine
 10
-9.580952
 20
-32.694412
 30
0.0
 11
-14.419048
 21
-32.694412
 31
0.0
  0
LINE
  5
F8
330
1F
100
AcDbEntity
  8
109
  6
HIDDEN2
 62
     1
100
AcDbLine
 10
-9.580952
 20
-32.694412
 30
0.0
 11
-9.580952
 21
-32.169052
 31
0.0
  0
LINE
  5
F9
330
1F
100
AcDbEntity
  8
109
  6
HIDDEN2
 62
     1
100
AcDbLine
 10
-6.419048
 20
-32.169052
 30
0.0
 11
-6.419048
 21
-32.694412
 31
0.0
  0
LINE
  5
FA
330
1F
100
AcDbEntity
  8
109
  6
HIDDEN2
 62
     1
100
AcDbLine
 10
-1.580952
 20
-32.694412
 30
0.0
 11
-6.419048
 21
-32.694412
 31
0.0
  0
LINE
  5
FB
330
1F
100
AcDbEntity
  8
109
  6
HIDDEN2
 62
     1
100
AcDbLine
 10
-1.580952
 20
-32.694412
 30
0.0
 11
-1.580952
 21
-32.169052
 31
0.0
  0
LINE
  5
FC
330
1F
100
AcDbEntity
  8
109
  6
HIDDEN2
 62
     1
100
AcDbLine
 10
-32.168827
 20
-17.580948
 30
0.0
 11
-32.694206
 21
-17.580948
 31
0.0
  0
LINE
  5
FD
330
1F
100
AcDbEntity
  8
109
  6
HIDDEN2
 62
     1
100
AcDbLine
 10
-32.062645
 20
-21.835892
 30
0.0
 11
-32.407345
 21
-20.439682
 31
0.0
  0
LINE
  5
FE
330
1F
100
AcDbEntity
  8
109
  6
HIDDEN2
 62
     1
100
AcDbLine
 10
-32.407345
 20
-20.439682
 30
0.0
 11
-32.618496
 21
-19.017105
 31
0.0
  0
LINE
  5
FF
330
1F
100
AcDbEntity
  8
109
  6
HIDDEN2
 62
     1
100
AcDbLine
 10
-32.618496
 20
-19.017105
 30
0.0
 11
-32.69421
 21
-17.580978
 31
0.0
  0
LINE
  5
100
330
1F
100
AcDbEntity
  8
109
  6
HIDDEN2
 62
     1
100
AcDbLine
 10
-32.062641
 20
-21.835892
 30
0.0
 11
-31.554974
 21
-21.699844
 31
0.0
  0
LINE
  5
101
330
1F
100
AcDbEntity
  8
109
  6
HIDDEN2
 62
     1
100
AcDbLine
 10
-30.408108
 20
-24.468613
 30
0.0
 11
-30.863274
 21
-24.73143
 31
0.0
  0
LINE
  5
102
330
1F
100
AcDbEntity
  8
109
  6
HIDDEN2
 62
     1
100
AcDbLine
 10
-28.865818
 20
-27.584091
 30
0.0
 11
-29.603863
 21
-26.685165
 31
0.0
  0
LINE
  5
103
330
1F
100
AcDbEntity
  8
109
  6
HIDDEN2
 62
     1
100
AcDbLine
 10
-29.603863
 20
-26.685165
 30
0.0
 11
-30.270985
 21
-25.732407
 31
0.0
  0
LINE
  5
104
330
1F
100
AcDbEntity
  8
109
  6
HIDDEN2
 62
     1
100
AcDbLine
 10
-30.270985
 20
-25.732407
 30
0.0
 11
-30.863277
 21
-24.73143
 31
0.0
  0
LINE
  5
105
330
1F
100
AcDbEntity
  8
109
  6
HIDDEN2
 62
     1
100
AcDbLine
 10
-28.865814
 20
-27.584091
 30
0.0
 11
-28.4632
 21
-27.246262
 31
0.0
  0
LINE
  5
106
330
1F
100
AcDbEntity
  8
109
  6
HIDDEN2
 62
     1
100
AcDbLine
 10
-27.246246
 20
-28.463211
 30
0.0
 11
-27.58408
 21
-28.865829
 31
0.0
  0
LINE
  5
107
330
1F
100
AcDbEntity
  8
109
  6
HIDDEN2
 62
     1
100
AcDbLine
 10
-24.731419
 20
-30.863297
 30
0.0
 11
-25.732403
 21
-30.271011
 31
0.0
  0
LINE
  5
108
330
1F
100
AcDbEntity
  8
109
  6
HIDDEN2
 62
     1
100
AcDbLine
 10
-25.732403
 20
-30.271011
 30
0.0
 11
-26.685154
 21
-29.603867
 31
0.0
  0
LINE
  5
109
330
1F
100
AcDbEntity
  8
109
  6
HIDDEN2
 62
     1
100
AcDbLine
 10
-26.685154
 20
-29.603867
 30
0.0
 11
-27.584084
 21
-28.865829
 31
0.0
  0
LINE
  5
10A
330
1F
100
AcDbEntity
  8
109
  6
HIDDEN2
 62
     1
100
AcDbLine
 10
-24.731411
 20
-30.863266
 30
0.0
 11
-24.468624
 21
-30.408127
 31
0.0
  0
LINE
  5
10B
330
1F
100
AcDbEntity
  8
109
  6
HIDDEN2
 62
     1
100
AcDbLine
 10
-21.699848
 20
-31.554977
 30
0.0
 11
-21.83588
 21
-32.062637
 31
0.0
  0
LINE
  5
10C
330
1F
100
AcDbEntity
  8
109
  6
HIDDEN2
 62
     1
100
AcDbLine
 10
-17.580952
 20
-32.694229
 30
0.0
 11
-19.017101
 21
-32.618515
 31
0.0
  0
LINE
  5
10D
330
1F
100
AcDbEntity
  8
109
  6
HIDDEN2
 62
     1
100
AcDbLine
 10
-19.017101
 20
-32.618515
 30
0.0
 11
-20.439663
 21
-32.407364
 31
0.0
  0
LINE
  5
10E
330
1F
100
AcDbEntity
  8
109
  6
HIDDEN2
 62
     1
100
AcDbLine
 10
-20.439663
 20
-32.407364
 30
0.0
 11
-21.83588
 21
-32.062668
 31
0.0
  0
LINE
  5
10F
330
1F
100
AcDbEntity
  8
109
  6
HIDDEN2
 62
     1
100
AcDbLine
 10
-17.580952
 20
-32.694199
 30
0.0
 11
-17.580952
 21
-32.168839
 31
0.0
  0
LINE
  5
110
330
1F
100
AcDbEntity
  8
109
  6
HIDDEN2
 62
     1
100
AcDbLine
 10
-32.169048
 20
14.419052
 30
0.0
 11
-32.69442
 21
14.419052
 31
0.0
  0
LINE
  5
111
330
1F
100
AcDbEntity
  8
109
  6
HIDDEN2
 62
     1
100
AcDbLine
 10
-32.69442
 20
9.580948
 30
0.0
 11
-32.69442
 21
14.419052
 31
0.0
  0
LINE
  5
112
330
1F
100
AcDbEntity
  8
109
  6
HIDDEN2
 62
     1
100
AcDbLine
 10
-32.69442
 20
9.580948
 30
0.0
 11
-32.169048
 21
9.580948
 31
0.0
  0
LINE
  5
113
330
1F
100
AcDbEntity
  8
109
  6
HIDDEN2
 62
     1
100
AcDbLine
 10
-32.169048
 20
6.419052
 30
0.0
 11
-32.69442
 21
6.419052
 31
0.0
  0
LINE
  5
114
330
1F
100
AcDbEntity
  8
109
  6
HIDDEN2
 62
     1
100
AcDbLine
 10
-32.69442
 20
1.580948
 30
0.0
 11
-32.69442
 21
6.419052
 31
0.0
  0
LINE
  5
115
330
1F
100
AcDbEntity
  8
109
  6
HIDDEN2
 62
     1
100
AcDbLine
 10
-32.69442
 20
1.580948
 30
0.0
 11
-32.169048
 21
1.580948
 31
0.0
  0
LINE
  5
116
330
1F
100
AcDbEntity
  8
109
  6
HIDDEN2
 62
     1
100
AcDbLine
 10
-32.169048
 20
-1.580948
 30
0.0
 11
-32.69442
 21
-1.580948
 31
0.0
  0
LINE
  5
117
330
1F
100
AcDbEntity
  8
109
  6
HIDDEN2
 62
     1
100
AcDbLine
 10
-32.69442
 20
-6.419052
 30
0.0
 11
-32.69442
 21
-1.580948
 31
0.0
  0
LINE
  5
118
330
1F
100
AcDbEntity
  8
109
  6
HIDDEN2
 62
     1
100
AcDbLine
 10
-32.69442
 20
-6.419052
 30
0.0
 11
-32.169048
 21
-6.419052
 31
0.0
  0
LINE
  5
119
330
1F
100
AcDbEntity
  8
109
  6
HIDDEN2
 62
     1
100
AcDbLine
 10
-32.169048
 20
-9.580948
 30
0.0
 11
-32.69442
 21
-9.580948
 31
0.0
  0
LINE
  5
11A
330
1F
100
AcDbEntity
  8
109
  6
HIDDEN2
 62
     1
100
AcDbLine
 10
-32.69442
 20
-14.419052
 30
0.0
 11
-32.69442
 21
-9.580948
 31
0.0
  0
LINE
  5
11B
330
1F
100
AcDbEntity
  8
109
  6
HIDDEN2
 62
     1
100
AcDbLine
 10
-32.69442
 20
-14.419052
 30
0.0
 11
-32.169048
 21
-14.419052
 31
0.0
  0
LINE
  5
11C
330
1F
100
AcDbEntity
  8
109
  6
HIDDEN2
 62
     1
100
AcDbLine
 10
-30.863274
 20
24.7314
 30
0.0
 11
-30.408108
 21
24.468613
 31
0.0
  0
LINE
  5
11D
330
1F
100
AcDbEntity
  8
109
  6
HIDDEN2
 62
     1
100
AcDbLine
 10
-31.554974
 20
21.699844
 30
0.0
 11
-32.062641
 21
21.835861
 31
0.0
  0
LINE
  5
11E
330
1F
100
AcDbEntity
  8
109
  6
HIDDEN2
 62
     1
100
AcDbLine
 10
-32.69421
 20
17.580948
 30
0.0
 11
-32.618496
 21
19.017075
 31
0.0
  0
LINE
  5
11F
330
1F
100
AcDbEntity
  8
109
  6
HIDDEN2
 62
     1
100
AcDbLine
 10
-32.618496
 20
19.017075
 30
0.0
 11
-32.407345
 21
20.439651
 31
0.0
  0
LINE
  5
120
330
1F
100
AcDbEntity
  8
109
  6
HIDDEN2
 62
     1
100
AcDbLine
 10
-32.407345
 20
20.439651
 30
0.0
 11
-32.062645
 21
21.835861
 31
0.0
  0
LINE
  5
121
330
1F
100
AcDbEntity
  8
109
  6
HIDDEN2
 62
     1
100
AcDbLine
 10
-32.694206
 20
17.580948
 30
0.0
 11
-32.168827
 21
17.580948
 31
0.0
  0
LINE
  5
122
330
1F
100
AcDbEntity
  8
109
  6
HIDDEN2
 62
     1
100
AcDbLine
 10
-17.580952
 20
32.168808
 30
0.0
 11
-17.580952
 21
32.694199
 31
0.0
  0
LINE
  5
123
330
1F
100
AcDbEntity
  8
109
  6
HIDDEN2
 62
     1
100
AcDbLine
 10
-21.83588
 20
32.062637
 30
0.0
 11
-20.439663
 21
32.407333
 31
0.0
  0
LINE
  5
124
330
1F
100
AcDbEntity
  8
109
  6
HIDDEN2
 62
     1
100
AcDbLine
 10
-20.439663
 20
32.407333
 30
0.0
 11
-19.017101
 21
32.618484
 31
0.0
  0
LINE
  5
125
330
1F
100
AcDbEntity
  8
109
  6
HIDDEN2
 62
     1
100
AcDbLine
 10
-19.017101
 20
32.618484
 30
0.0
 11
-17.580952
 21
32.694199
 31
0.0
  0
LINE
  5
126
330
1F
100
AcDbEntity
  8
109
  6
HIDDEN2
 62
     1
100
AcDbLine
 10
-21.83588
 20
32.062637
 30
0.0
 11
-21.699848
 21
31.554977
 31
0.0
  0
LINE
  5
127
330
1F
100
AcDbEntity
  8
109
  6
HIDDEN2
 62
     1
100
AcDbLine
 10
-24.468624
 20
30.408096
 30
0.0
 11
-24.731411
 21
30.863266
 31
0.0
  0
LINE
  5
128
330
1F
100
AcDbEntity
  8
109
  6
HIDDEN2
 62
     1
100
AcDbLine
 10
-27.584084
 20
28.865799
 30
0.0
 11
-26.685154
 21
29.603836
 31
0.0
  0
LINE
  5
129
330
1F
100
AcDbEntity
  8
109
  6
HIDDEN2
 62
     1
100
AcDbLine
 10
-26.685154
 20
29.603836
 30
0.0
 11
-25.732403
 21
30.270981
 31
0.0
  0
LINE
  5
12A
330
1F
100
AcDbEntity
  8
109
  6
HIDDEN2
 62
     1
100
AcDbLine
 10
-25.732403
 20
30.270981
 30
0.0
 11
-24.731419
 21
30.863266
 31
0.0
  0
LINE
  5
12B
330
1F
100
AcDbEntity
  8
109
  6
HIDDEN2
 62
     1
100
AcDbLine
 10
-27.58408
 20
28.865799
 30
0.0
 11
-27.246246
 21
28.463181
 31
0.0
  0
LINE
  5
12C
330
1F
100
AcDbEntity
  8
109
  6
HIDDEN2
 62
     1
100
AcDbLine
 10
-30.863277
 20
24.7314
 30
0.0
 11
-30.270985
 21
25.732376
 31
0.0
  0
LINE
  5
12D
330
1F
100
AcDbEntity
  8
109
  6
HIDDEN2
 62
     1
100
AcDbLine
 10
-30.270985
 20
25.732376
 30
0.0
 11
-29.603863
 21
26.685135
 31
0.0
  0
LINE
  5
12E
330
1F
100
AcDbEntity
  8
109
  6
HIDDEN2
 62
     1
100
AcDbLine
 10
-29.603863
 20
26.685135
 30
0.0
 11
-28.865818
 21
27.584061
 31
0.0
  0
LINE
  5
12F
330
1F
100
AcDbEntity
  8
109
  6
HIDDEN2
 62
     1
100
AcDbLine
 10
-28.4632
 20
27.246231
 30
0.0
 11
-28.865814
 21
27.584091
 31
0.0
  0
LINE
  5
130
330
1F
100
AcDbEntity
  8
109
  6
HIDDEN2
 62
     1
100
AcDbLine
 10
-1.580952
 20
32.169052
 30
0.0
 11
-1.580952
 21
32.694412
 31
0.0
  0
LINE
  5
131
330
1F
100
AcDbEntity
  8
109
  6
HIDDEN2
 62
     1
100
AcDbLine
 10
-6.419048
 20
32.694412
 30
0.0
 11
-1.580952
 21
32.694412
 31
0.0
  0
LINE
  5
132
330
1F
100
AcDbEntity
  8
109
  6
HIDDEN2
 62
     1
100
AcDbLine
 10
-6.419048
 20
32.694412
 30
0.0
 11
-6.419048
 21
32.169052
 31
0.0
  0
LINE
  5
133
330
1F
100
AcDbEntity
  8
109
  6
HIDDEN2
 62
     1
100
AcDbLine
 10
-9.580952
 20
32.169052
 30
0.0
 11
-9.580952
 21
32.694412
 31
0.0
  0
LINE
  5
134
330
1F
100
AcDbEntity
  8
109
  6
HIDDEN2
 62
     1
100
AcDbLine
 10
-14.419048
 20
32.694412
 30
0.0
 11
-9.580952
 21
32.694412
 31
0.0
  0
LINE
  5
135
330
1F
100
AcDbEntity
  8
109
  6
HIDDEN2
 62
     1
100
AcDbLine
 10
-14.419048
 20
32.694412
 30
0.0
 11
-14.419048
 21
32.169052
 31
0.0
  0
LINE
  5
136
330
1F
100
AcDbEntity
  8
109
  6
HIDDEN2
 62
     1
100
AcDbLine
 10
-17.500004
 20
-32.017471
 30
0.0
 11
-19.01749
 21
-31.937943
 31
0.0
  0
LINE
  5
137
330
1F
100
AcDbEntity
  8
109
  6
HIDDEN2
 62
     1
100
AcDbLine
 10
-19.01749
 20
-31.937943
 30
0.0
 11
-20.518353
 21
-31.700241
 31
0.0
  0
LINE
  5
138
330
1F
100
AcDbEntity
  8
109
  6
HIDDEN2
 62
     1
100
AcDbLine
 10
-20.518353
 20
-31.700241
 30
0.0
 11
-21.986141
 21
-31.306931
 31
0.0
  0
LINE
  5
139
330
1F
100
AcDbEntity
  8
109
  6
HIDDEN2
 62
     1
100
AcDbLine
 10
-21.986141
 20
-31.306931
 30
0.0
 11
-23.404781
 21
-30.762375
 31
0.0
  0
LINE
  5
13A
330
1F
100
AcDbEntity
  8
109
  6
HIDDEN2
 62
     1
100
AcDbLine
 10
-23.404781
 20
-30.762375
 30
0.0
 11
-24.758732
 21
-30.072495
 31
0.0
  0
LINE
  5
13B
330
1F
100
AcDbEntity
  8
109
  6
HIDDEN2
 62
     1
100
AcDbLine
 10
-24.758732
 20
-30.072495
 30
0.0
 11
-26.033154
 21
-29.244888
 31
0.0
  0
LINE
  5
13C
330
1F
100
AcDbEntity
  8
109
  6
HIDDEN2
 62
     1
100
AcDbLine
 10
-26.033154
 20
-29.244888
 30
0.0
 11
-27.214077
 21
-28.288589
 31
0.0
  0
LINE
  5
13D
330
1F
100
AcDbEntity
  8
109
  6
HIDDEN2
 62
     1
100
AcDbLine
 10
-27.214077
 20
-28.288589
 30
0.0
 11
-28.288574
 21
-27.214096
 31
0.0
  0
LINE
  5
13E
330
1F
100
AcDbEntity
  8
109
  6
HIDDEN2
 62
     1
100
AcDbLine
 10
-28.288574
 20
-27.214096
 30
0.0
 11
-29.244873
 21
-26.033157
 31
0.0
  0
LINE
  5
13F
330
1F
100
AcDbEntity
  8
109
  6
HIDDEN2
 62
     1
100
AcDbLine
 10
-29.244873
 20
-26.033157
 30
0.0
 11
-30.072487
 21
-24.758743
 31
0.0
  0
LINE
  5
140
330
1F
100
AcDbEntity
  8
109
  6
HIDDEN2
 62
     1
100
AcDbLine
 10
-30.072487
 20
-24.758743
 30
0.0
 11
-30.76236
 21
-23.4048
 31
0.0
  0
LINE
  5
141
330
1F
100
AcDbEntity
  8
109
  6
HIDDEN2
 62
     1
100
AcDbLine
 10
-30.76236
 20
-23.4048
 30
0.0
 11
-31.306923
 21
-21.98616
 31
0.0
  0
LINE
  5
142
330
1F
100
AcDbEntity
  8
109
  6
HIDDEN2
 62
     1
100
AcDbLine
 10
-31.306923
 20
-21.98616
 30
0.0
 11
-31.700218
 21
-20.518356
 31
0.0
  0
LINE
  5
143
330
1F
100
AcDbEntity
  8
109
  6
HIDDEN2
 62
     1
100
AcDbLine
 10
-31.700218
 20
-20.518356
 30
0.0
 11
-31.937931
 21
-19.017502
 31
0.0
  0
LINE
  5
144
330
1F
100
AcDbEntity
  8
109
  6
HIDDEN2
 62
     1
100
AcDbLine
 10
-31.937931
 20
-19.017502
 30
0.0
 11
-32.01746
 21
-17.500015
 31
0.0
  0
LINE
  5
145
330
1F
100
AcDbEntity
  8
109
  6
HIDDEN2
 62
     1
100
AcDbLine
 10
-32.017456
 20
-17.500015
 30
0.0
 11
-32.017456
 21
17.499985
 31
0.0
  0
LINE
  5
146
330
1F
100
AcDbEntity
  8
109
  6
HIDDEN2
 62
     1
100
AcDbLine
 10
-32.01746
 20
17.499985
 30
0.0
 11
-31.937931
 21
19.017471
 31
0.0
  0
LINE
  5
147
330
1F
100
AcDbEntity
  8
109
  6
HIDDEN2
 62
     1
100
AcDbLine
 10
-31.937931
 20
19.017471
 30
0.0
 11
-31.700218
 21
20.518326
 31
0.0
  0
LINE
  5
148
330
1F
100
AcDbEntity
  8
109
  6
HIDDEN2
 62
     1
100
AcDbLine
 10
-31.700218
 20
20.518326
 30
0.0
 11
-31.306923
 21
21.98613
 31
0.0
  0
LINE
  5
149
330
1F
100
AcDbEntity
  8
109
  6
HIDDEN2
 62
     1
100
AcDbLine
 10
-31.306923
 20
21.98613
 30
0.0
 11
-30.76236
 21
23.40477
 31
0.0
  0
LINE
  5
14A
330
1F
100
AcDbEntity
  8
109
  6
HIDDEN2
 62
     1
100
AcDbLine
 10
-30.76236
 20
23.40477
 30
0.0
 11
-30.072487
 21
24.758713
 31
0.0
  0
LINE
  5
14B
330
1F
100
AcDbEntity
  8
109
  6
HIDDEN2
 62
     1
100
AcDbLine
 10
-30.072487
 20
24.758713
 30
0.0
 11
-29.244873
 21
26.033127
 31
0.0
  0
LINE
  5
14C
330
1F
100
AcDbEntity
  8
109
  6
HIDDEN2
 62
     1
100
AcDbLine
 10
-29.244873
 20
26.033127
 30
0.0
 11
-28.288574
 21
27.214066
 31
0.0
  0
LINE
  5
14D
330
1F
100
AcDbEntity
  8
109
  6
HIDDEN2
 62
     1
100
AcDbLine
 10
-28.288574
 20
27.214066
 30
0.0
 11
-27.214077
 21
28.288559
 31
0.0
  0
LINE
  5
14E
330
1F
100
AcDbEntity
  8
109
  6
HIDDEN2
 62
     1
100
AcDbLine
 10
-27.214077
 20
28.288559
 30
0.0
 11
-26.033154
 21
29.244858
 31
0.0
  0
LINE
  5
14F
330
1F
100
AcDbEntity
  8
109
  6
HIDDEN2
 62
     1
100
AcDbLine
 10
-26.033154
 20
29.244858
 30
0.0
 11
-24.758732
 21
30.072464
 31
0.0
  0
LINE
  5
150
330
1F
100
AcDbEntity
  8
109
  6
HIDDEN2
 62
     1
100
AcDbLine
 10
-24.758732
 20
30.072464
 30
0.0
 11
-23.404781
 21
30.762344
 31
0.0
  0
LINE
  5
151
330
1F
100
AcDbEntity
  8
109
  6
HIDDEN2
 62
     1
100
AcDbLine
 10
-23.404781
 20
30.762344
 30
0.0
 11
-21.986141
 21
31.3069
 31
0.0
  0
LINE
  5
152
330
1F
100
AcDbEntity
  8
109
  6
HIDDEN2
 62
     1
100
AcDbLine
 10
-21.986141
 20
31.3069
 30
0.0
 11
-20.518353
 21
31.700211
 31
0.0
  0
LINE
  5
153
330
1F
100
AcDbEntity
  8
109
  6
HIDDEN2
 62
     1
100
AcDbLine
 10
-20.518353
 20
31.700211
 30
0.0
 11
-19.01749
 21
31.937912
 31
0.0
  0
LINE
  5
154
330
1F
100
AcDbEntity
  8
109
  6
HIDDEN2
 62
     1
100
AcDbLine
 10
-19.01749
 20
31.937912
 30
0.0
 11
-17.500004
 21
32.017441
 31
0.0
  0
LINE
  5
155
330
1F
100
AcDbEntity
  8
109
  6
HIDDEN2
 62
     1
100
AcDbLine
 10
1.580952
 20
-32.694412
 30
0.0
 11
6.419048
 21
-32.694412
 31
0.0
  0
LINE
  5
156
330
1F
100
AcDbEntity
  8
109
  6
HIDDEN2
 62
     1
100
AcDbLine
 10
9.580952
 20
-32.694412
 30
0.0
 11
14.419048
 21
-32.694412
 31
0.0
  0
LINE
  5
157
330
1F
100
AcDbEntity
  8
109
  6
HIDDEN2
 62
     1
100
AcDbLine
 10
17.499996
 20
-32.017471
 30
0.0
 11
19.017483
 21
-31.937943
 31
0.0
  0
LINE
  5
158
330
1F
100
AcDbEntity
  8
109
  6
HIDDEN2
 62
     1
100
AcDbLine
 10
19.017483
 20
-31.937943
 30
0.0
 11
20.518345
 21
-31.700241
 31
0.0
  0
LINE
  5
159
330
1F
100
AcDbEntity
  8
109
  6
HIDDEN2
 62
     1
100
AcDbLine
 10
20.518345
 20
-31.700241
 30
0.0
 11
21.986134
 21
-31.306931
 31
0.0
  0
LINE
  5
15A
330
1F
100
AcDbEntity
  8
109
  6
HIDDEN2
 62
     1
100
AcDbLine
 10
21.986134
 20
-31.306931
 30
0.0
 11
23.404774
 21
-30.762375
 31
0.0
  0
LINE
  5
15B
330
1F
100
AcDbEntity
  8
109
  6
HIDDEN2
 62
     1
100
AcDbLine
 10
23.404774
 20
-30.762375
 30
0.0
 11
24.758724
 21
-30.072495
 31
0.0
  0
LINE
  5
15C
330
1F
100
AcDbEntity
  8
109
  6
HIDDEN2
 62
     1
100
AcDbLine
 10
24.758724
 20
-30.072495
 30
0.0
 11
26.033146
 21
-29.244888
 31
0.0
  0
LINE
  5
15D
330
1F
100
AcDbEntity
  8
109
  6
HIDDEN2
 62
     1
100
AcDbLine
 10
26.033146
 20
-29.244888
 30
0.0
 11
27.214069
 21
-28.288589
 31
0.0
  0
LINE
  5
15E
330
1F
100
AcDbEntity
  8
109
  6
HIDDEN2
 62
     1
100
AcDbLine
 10
27.214069
 20
-28.288589
 30
0.0
 11
28.28857
 21
-27.214096
 31
0.0
  0
LINE
  5
15F
330
1F
100
AcDbEntity
  8
109
  6
HIDDEN2
 62
     1
100
AcDbLine
 10
28.28857
 20
-27.214096
 30
0.0
 11
29.244862
 21
-26.033157
 31
0.0
  0
LINE
  5
160
330
1F
100
AcDbEntity
  8
109
  6
HIDDEN2
 62
     1
100
AcDbLine
 10
29.244862
 20
-26.033157
 30
0.0
 11
30.072483
 21
-24.758743
 31
0.0
  0
LINE
  5
161
330
1F
100
AcDbEntity
  8
109
  6
HIDDEN2
 62
     1
100
AcDbLine
 10
30.072483
 20
-24.758743
 30
0.0
 11
30.762348
 21
-23.4048
 31
0.0
  0
LINE
  5
162
330
1F
100
AcDbEntity
  8
109
  6
HIDDEN2
 62
     1
100
AcDbLine
 10
30.762348
 20
-23.4048
 30
0.0
 11
31.306919
 21
-21.98616
 31
0.0
  0
LINE
  5
163
330
1F
100
AcDbEntity
  8
109
  6
HIDDEN2
 62
     1
100
AcDbLine
 10
31.306919
 20
-21.98616
 30
0.0
 11
31.700207
 21
-20.518356
 31
0.0
  0
LINE
  5
164
330
1F
100
AcDbEntity
  8
109
  6
HIDDEN2
 62
     1
100
AcDbLine
 10
31.700207
 20
-20.518356
 30
0.0
 11
31.937923
 21
-19.017502
 31
0.0
  0
LINE
  5
165
330
1F
100
AcDbEntity
  8
109
  6
HIDDEN2
 62
     1
100
AcDbLine
 10
31.937923
 20
-19.017502
 30
0.0
 11
32.017452
 21
-17.500015
 31
0.0
  0
LINE
  5
166
330
1F
100
AcDbEntity
  8
109
  6
HIDDEN2
 62
     1
100
AcDbLine
 10
17.499996
 20
-32.104752
 30
0.0
 11
18.931507
 21
-32.034409
 31
0.0
  0
LINE
  5
167
330
1F
100
AcDbEntity
  8
109
  6
HIDDEN2
 62
     1
100
AcDbLine
 10
18.931507
 20
-32.034409
 30
0.0
 11
20.349239
 21
-31.824112
 31
0.0
  0
LINE
  5
168
330
1F
100
AcDbEntity
  8
109
  6
HIDDEN2
 62
     1
100
AcDbLine
 10
20.349239
 20
-31.824112
 30
0.0
 11
21.739529
 21
-31.475876
 31
0.0
  0
LINE
  5
169
330
1F
100
AcDbEntity
  8
109
  6
HIDDEN2
 62
     1
100
AcDbLine
 10
21.739529
 20
-31.475876
 30
0.0
 11
23.088985
 21
-30.993027
 31
0.0
  0
LINE
  5
16A
330
1F
100
AcDbEntity
  8
109
  6
HIDDEN2
 62
     1
100
AcDbLine
 10
23.088985
 20
-30.993027
 30
0.0
 11
24.384617
 21
-30.380234
 31
0.0
  0
LINE
  5
16B
330
1F
100
AcDbEntity
  8
109
  6
HIDDEN2
 62
     1
100
AcDbLine
 10
24.384617
 20
-30.380234
 30
0.0
 11
25.613949
 21
-29.643417
 31
0.0
  0
LINE
  5
16C
330
1F
100
AcDbEntity
  8
109
  6
HIDDEN2
 62
     1
100
AcDbLine
 10
25.613949
 20
-29.643417
 30
0.0
 11
26.765141
 21
-28.789627
 31
0.0
  0
LINE
  5
16D
330
1F
100
AcDbEntity
  8
109
  6
HIDDEN2
 62
     1
100
AcDbLine
 10
26.765141
 20
-28.789627
 30
0.0
 11
27.827099
 21
-27.827133
 31
0.0
  0
LINE
  5
16E
330
1F
100
AcDbEntity
  8
109
  6
HIDDEN2
 62
     1
100
AcDbLine
 10
27.827099
 20
-27.827133
 30
0.0
 11
28.789608
 21
-26.765152
 31
0.0
  0
LINE
  5
16F
330
1F
100
AcDbEntity
  8
109
  6
HIDDEN2
 62
     1
100
AcDbLine
 10
28.789608
 20
-26.765152
 30
0.0
 11
29.643383
 21
-25.613968
 31
0.0
  0
LINE
  5
170
330
1F
100
AcDbEntity
  8
109
  6
HIDDEN2
 62
     1
100
AcDbLine
 10
29.643383
 20
-25.613968
 30
0.0
 11
30.380222
 21
-24.384628
 31
0.0
  0
LINE
  5
171
330
1F
100
AcDbEntity
  8
109
  6
HIDDEN2
 62
     1
100
AcDbLine
 10
30.380222
 20
-24.384628
 30
0.0
 11
30.993008
 21
-23.089005
 31
0.0
  0
LINE
  5
172
330
1F
100
AcDbEntity
  8
109
  6
HIDDEN2
 62
     1
100
AcDbLine
 10
30.993008
 20
-23.089005
 30
0.0
 11
31.475849
 21
-21.739548
 31
0.0
  0
LINE
  5
173
330
1F
100
AcDbEntity
  8
109
  6
HIDDEN2
 62
     1
100
AcDbLine
 10
31.475849
 20
-21.739548
 30
0.0
 11
31.8241
 21
-20.349258
 31
0.0
  0
LINE
  5
174
330
1F
100
AcDbEntity
  8
109
  6
HIDDEN2
 62
     1
100
AcDbLine
 10
31.8241
 20
-20.349258
 30
0.0
 11
32.034405
 21
-18.931534
 31
0.0
  0
LINE
  5
175
330
1F
100
AcDbEntity
  8
109
  6
HIDDEN2
 62
     1
100
AcDbLine
 10
32.034405
 20
-18.931534
 30
0.0
 11
32.104725
 21
-17.500015
 31
0.0
  0
LINE
  5
176
330
1F
100
AcDbEntity
  8
109
  6
HIDDEN2
 62
     1
100
AcDbLine
 10
17.580944
 20
-32.694229
 30
0.0
 11
19.017094
 21
-32.618515
 31
0.0
  0
LINE
  5
177
330
1F
100
AcDbEntity
  8
109
  6
HIDDEN2
 62
     1
100
AcDbLine
 10
19.017094
 20
-32.618515
 30
0.0
 11
20.439655
 21
-32.407364
 31
0.0
  0
LINE
  5
178
330
1F
100
AcDbEntity
  8
109
  6
HIDDEN2
 62
     1
100
AcDbLine
 10
20.439655
 20
-32.407364
 30
0.0
 11
21.835873
 21
-32.062668
 31
0.0
  0
LINE
  5
179
330
1F
100
AcDbEntity
  8
109
  6
HIDDEN2
 62
     1
100
AcDbLine
 10
24.731411
 20
-30.863297
 30
0.0
 11
25.732395
 21
-30.271011
 31
0.0
  0
LINE
  5
17A
330
1F
100
AcDbEntity
  8
109
  6
HIDDEN2
 62
     1
100
AcDbLine
 10
25.732395
 20
-30.271011
 30
0.0
 11
26.685146
 21
-29.603867
 31
0.0
  0
LINE
  5
17B
330
1F
100
AcDbEntity
  8
109
  6
HIDDEN2
 62
     1
100
AcDbLine
 10
26.685146
 20
-29.603867
 30
0.0
 11
27.58408
 21
-28.865829
 31
0.0
  0
LINE
  5
17C
330
1F
100
AcDbEntity
  8
109
  6
HIDDEN2
 62
     1
100
AcDbLine
 10
28.86581
 20
-27.584091
 30
0.0
 11
29.603855
 21
-26.685165
 31
0.0
  0
LINE
  5
17D
330
1F
100
AcDbEntity
  8
109
  6
HIDDEN2
 62
     1
100
AcDbLine
 10
29.603855
 20
-26.685165
 30
0.0
 11
30.270977
 21
-25.732407
 31
0.0
  0
LINE
  5
17E
330
1F
100
AcDbEntity
  8
109
  6
HIDDEN2
 62
     1
100
AcDbLine
 10
30.270977
 20
-25.732407
 30
0.0
 11
30.86327
 21
-24.73143
 31
0.0
  0
LINE
  5
17F
330
1F
100
AcDbEntity
  8
109
  6
HIDDEN2
 62
     1
100
AcDbLine
 10
32.062641
 20
-21.835892
 30
0.0
 11
32.407337
 21
-20.439682
 31
0.0
  0
LINE
  5
180
330
1F
100
AcDbEntity
  8
109
  6
HIDDEN2
 62
     1
100
AcDbLine
 10
32.407337
 20
-20.439682
 30
0.0
 11
32.618488
 21
-19.017105
 31
0.0
  0
LINE
  5
181
330
1F
100
AcDbEntity
  8
109
  6
HIDDEN2
 62
     1
100
AcDbLine
 10
32.618488
 20
-19.017105
 30
0.0
 11
32.694202
 21
-17.580978
 31
0.0
  0
LINE
  5
182
330
1F
100
AcDbEntity
  8
109
  6
HIDDEN2
 62
     1
100
AcDbLine
 10
32.104733
 20
-17.500015
 30
0.0
 11
32.104733
 21
17.499985
 31
0.0
  0
LINE
  5
183
330
1F
100
AcDbEntity
  8
109
  6
HIDDEN2
 62
     1
100
AcDbLine
 10
32.017452
 20
-17.500015
 30
0.0
 11
32.017452
 21
17.499985
 31
0.0
  0
LINE
  5
184
330
1F
100
AcDbEntity
  8
109
  6
HIDDEN2
 62
     1
100
AcDbLine
 10
32.694424
 20
-14.419052
 30
0.0
 11
32.694424
 21
-9.580948
 31
0.0
  0
LINE
  5
185
330
1F
100
AcDbEntity
  8
109
  6
HIDDEN2
 62
     1
100
AcDbLine
 10
32.694424
 20
-6.419052
 30
0.0
 11
32.694424
 21
-1.580948
 31
0.0
  0
LINE
  5
186
330
1F
100
AcDbEntity
  8
109
  6
HIDDEN2
 62
     1
100
AcDbLine
 10
32.694424
 20
1.580948
 30
0.0
 11
32.694424
 21
6.419052
 31
0.0
  0
LINE
  5
187
330
1F
100
AcDbEntity
  8
109
  6
HIDDEN2
 62
     1
100
AcDbLine
 10
32.694424
 20
9.580948
 30
0.0
 11
32.694424
 21
14.419052
 31
0.0
  0
LINE
  5
188
330
1F
100
AcDbEntity
  8
109
  6
HIDDEN2
 62
     1
100
AcDbLine
 10
32.017452
 20
17.499985
 30
0.0
 11
31.937923
 21
19.017471
 31
0.0
  0
LINE
  5
189
330
1F
100
AcDbEntity
  8
109
  6
HIDDEN2
 62
     1
100
AcDbLine
 10
31.937923
 20
19.017471
 30
0.0
 11
31.700207
 21
20.518326
 31
0.0
  0
LINE
  5
18A
330
1F
100
AcDbEntity
  8
109
  6
HIDDEN2
 62
     1
100
AcDbLine
 10
31.700207
 20
20.518326
 30
0.0
 11
31.306919
 21
21.98613
 31
0.0
  0
LINE
  5
18B
330
1F
100
AcDbEntity
  8
109
  6
HIDDEN2
 62
     1
100
AcDbLine
 10
31.306919
 20
21.98613
 30
0.0
 11
30.762348
 21
23.40477
 31
0.0
  0
LINE
  5
18C
330
1F
100
AcDbEntity
  8
109
  6
HIDDEN2
 62
     1
100
AcDbLine
 10
30.762348
 20
23.40477
 30
0.0
 11
30.072483
 21
24.758713
 31
0.0
  0
LINE
  5
18D
330
1F
100
AcDbEntity
  8
109
  6
HIDDEN2
 62
     1
100
AcDbLine
 10
30.072483
 20
24.758713
 30
0.0
 11
29.244862
 21
26.033127
 31
0.0
  0
LINE
  5
18E
330
1F
100
AcDbEntity
  8
109
  6
HIDDEN2
 62
     1
100
AcDbLine
 10
29.244862
 20
26.033127
 30
0.0
 11
28.28857
 21
27.214066
 31
0.0
  0
LINE
  5
18F
330
1F
100
AcDbEntity
  8
109
  6
HIDDEN2
 62
     1
100
AcDbLine
 10
28.28857
 20
27.214066
 30
0.0
 11
27.214069
 21
28.288559
 31
0.0
  0
LINE
  5
190
330
1F
100
AcDbEntity
  8
109
  6
HIDDEN2
 62
     1
100
AcDbLine
 10
27.214069
 20
28.288559
 30
0.0
 11
26.033146
 21
29.244858
 31
0.0
  0
LINE
  5
191
330
1F
100
AcDbEntity
  8
109
  6
HIDDEN2
 62
     1
100
AcDbLine
 10
26.033146
 20
29.244858
 30
0.0
 11
24.758724
 21
30.072464
 31
0.0
  0
LINE
  5
192
330
1F
100
AcDbEntity
  8
109
  6
HIDDEN2
 62
     1
100
AcDbLine
 10
24.758724
 20
30.072464
 30
0.0
 11
23.404774
 21
30.762344
 31
0.0
  0
LINE
  5
193
330
1F
100
AcDbEntity
  8
109
  6
HIDDEN2
 62
     1
100
AcDbLine
 10
23.404774
 20
30.762344
 30
0.0
 11
21.986134
 21
31.3069
 31
0.0
  0
LINE
  5
194
330
1F
100
AcDbEntity
  8
109
  6
HIDDEN2
 62
     1
100
AcDbLine
 10
21.986134
 20
31.3069
 30
0.0
 11
20.518345
 21
31.700211
 31
0.0
  0
LINE
  5
195
330
1F
100
AcDbEntity
  8
109
  6
HIDDEN2
 62
     1
100
AcDbLine
 10
20.518345
 20
31.700211
 30
0.0
 11
19.017483
 21
31.937912
 31
0.0
  0
LINE
  5
196
330
1F
100
AcDbEntity
  8
109
  6
HIDDEN2
 62
     1
100
AcDbLine
 10
19.017483
 20
31.937912
 30
0.0
 11
17.499996
 21
32.017441
 31
0.0
  0
LINE
  5
197
330
1F
100
AcDbEntity
  8
109
  6
HIDDEN2
 62
     1
100
AcDbLine
 10
32.104725
 20
17.499985
 30
0.0
 11
32.034405
 21
18.931503
 31
0.0
  0
LINE
  5
198
330
1F
100
AcDbEntity
  8
109
  6
HIDDEN2
 62
     1
100
AcDbLine
 10
32.034405
 20
18.931503
 30
0.0
 11
31.8241
 21
20.349228
 31
0.0
  0
LINE
  5
199
330
1F
100
AcDbEntity
  8
109
  6
HIDDEN2
 62
     1
100
AcDbLine
 10
31.8241
 20
20.349228
 30
0.0
 11
31.475849
 21
21.739517
 31
0.0
  0
LINE
  5
19A
330
1F
100
AcDbEntity
  8
109
  6
HIDDEN2
 62
     1
100
AcDbLine
 10
31.475849
 20
21.739517
 30
0.0
 11
30.993008
 21
23.088974
 31
0.0
  0
LINE
  5
19B
330
1F
100
AcDbEntity
  8
109
  6
HIDDEN2
 62
     1
100
AcDbLine
 10
30.993008
 20
23.088974
 30
0.0
 11
30.380222
 21
24.384598
 31
0.0
  0
LINE
  5
19C
330
1F
100
AcDbEntity
  8
109
  6
HIDDEN2
 62
     1
100
AcDbLine
 10
30.380222
 20
24.384598
 30
0.0
 11
29.643383
 21
25.613937
 31
0.0
  0
LINE
  5
19D
330
1F
100
AcDbEntity
  8
109
  6
HIDDEN2
 62
     1
100
AcDbLine
 10
29.643383
 20
25.613937
 30
0.0
 11
28.789608
 21
26.765121
 31
0.0
  0
LINE
  5
19E
330
1F
100
AcDbEntity
  8
109
  6
HIDDEN2
 62
     1
100
AcDbLine
 10
28.789608
 20
26.765121
 30
0.0
 11
27.827099
 21
27.827103
 31
0.0
  0
LINE
  5
19F
330
1F
100
AcDbEntity
  8
109
  6
HIDDEN2
 62
     1
100
AcDbLine
 10
27.827099
 20
27.827103
 30
0.0
 11
26.765141
 21
28.789597
 31
0.0
  0
LINE
  5
1A0
330
1F
100
AcDbEntity
  8
109
  6
HIDDEN2
 62
     1
100
AcDbLine
 10
26.765141
 20
28.789597
 30
0.0
 11
25.613949
 21
29.643387
 31
0.0
  0
LINE
  5
1A1
330
1F
100
AcDbEntity
  8
109
  6
HIDDEN2
 62
     1
100
AcDbLine
 10
25.613949
 20
29.643387
 30
0.0
 11
24.384617
 21
30.380203
 31
0.0
  0
LINE
  5
1A2
330
1F
100
AcDbEntity
  8
109
  6
HIDDEN2
 62
     1
100
AcDbLine
 10
24.384617
 20
30.380203
 30
0.0
 11
23.088985
 21
30.992996
 31
0.0
  0
LINE
  5
1A3
330
1F
100
AcDbEntity
  8
109
  6
HIDDEN2
 62
     1
100
AcDbLine
 10
23.088985
 20
30.992996
 30
0.0
 11
21.739529
 21
31.475845
 31
0.0
  0
LINE
  5
1A4
330
1F
100
AcDbEntity
  8
109
  6
HIDDEN2
 62
     1
100
AcDbLine
 10
21.739529
 20
31.475845
 30
0.0
 11
20.349239
 21
31.824081
 31
0.0
  0
LINE
  5
1A5
330
1F
100
AcDbEntity
  8
109
  6
HIDDEN2
 62
     1
100
AcDbLine
 10
20.349239
 20
31.824081
 30
0.0
 11
18.931507
 21
32.034378
 31
0.0
  0
LINE
  5
1A6
330
1F
100
AcDbEntity
  8
109
  6
HIDDEN2
 62
     1
100
AcDbLine
 10
18.931507
 20
32.034378
 30
0.0
 11
17.499996
 21
32.104721
 31
0.0
  0
LINE
  5
1A7
330
1F
100
AcDbEntity
  8
109
  6
HIDDEN2
 62
     1
100
AcDbLine
 10
32.694202
 20
17.580948
 30
0.0
 11
32.618488
 21
19.017075
 31
0.0
  0
LINE
  5
1A8
330
1F
100
AcDbEntity
  8
109
  6
HIDDEN2
 62
     1
100
AcDbLine
 10
32.618488
 20
19.017075
 30
0.0
 11
32.407337
 21
20.439651
 31
0.0
  0
LINE
  5
1A9
330
1F
100
AcDbEntity
  8
109
  6
HIDDEN2
 62
     1
100
AcDbLine
 10
32.407337
 20
20.439651
 30
0.0
 11
32.062641
 21
21.835861
 31
0.0
  0
LINE
  5
1AA
330
1F
100
AcDbEntity
  8
109
  6
HIDDEN2
 62
     1
100
AcDbLine
 10
30.86327
 20
24.7314
 30
0.0
 11
30.270977
 21
25.732376
 31
0.0
  0
LINE
  5
1AB
330
1F
100
AcDbEntity
  8
109
  6
HIDDEN2
 62
     1
100
AcDbLine
 10
30.270977
 20
25.732376
 30
0.0
 11
29.603855
 21
26.685135
 31
0.0
  0
LINE
  5
1AC
330
1F
100
AcDbEntity
  8
109
  6
HIDDEN2
 62
     1
100
AcDbLine
 10
29.603855
 20
26.685135
 30
0.0
 11
28.86581
 21
27.584061
 31
0.0
  0
LINE
  5
1AD
330
1F
100
AcDbEntity
  8
109
  6
HIDDEN2
 62
     1
100
AcDbLine
 10
27.58408
 20
28.865799
 30
0.0
 11
26.685146
 21
29.603836
 31
0.0
  0
LINE
  5
1AE
330
1F
100
AcDbEntity
  8
109
  6
HIDDEN2
 62
     1
100
AcDbLine
 10
26.685146
 20
29.603836
 30
0.0
 11
25.732395
 21
30.270981
 31
0.0
  0
LINE
  5
1AF
330
1F
100
AcDbEntity
  8
109
  6
HIDDEN2
 62
     1
100
AcDbLine
 10
25.732395
 20
30.270981
 30
0.0
 11
24.731411
 21
30.863266
 31
0.0
  0
LINE
  5
1B0
330
1F
100
AcDbEntity
  8
109
  6
HIDDEN2
 62
     1
100
AcDbLine
 10
21.835873
 20
32.062637
 30
0.0
 11
20.439655
 21
32.407333
 31
0.0
  0
LINE
  5
1B1
330
1F
100
AcDbEntity
  8
109
  6
HIDDEN2
 62
     1
100
AcDbLine
 10
20.439655
 20
32.407333
 30
0.0
 11
19.017094
 21
32.618484
 31
0.0
  0
LINE
  5
1B2
330
1F
100
AcDbEntity
  8
109
  6
HIDDEN2
 62
     1
100
AcDbLine
 10
19.017094
 20
32.618484
 30
0.0
 11
17.580944
 21
32.694199
 31
0.0
  0
LINE
  5
1B3
330
1F
100
AcDbEntity
  8
109
  6
HIDDEN2
 62
     1
100
AcDbLine
 10
14.419048
 20
32.694412
 30
0.0
 11
9.580952
 21
32.694412
 31
0.0
  0
LINE
  5
1B4
330
1F
100
AcDbEntity
  8
109
  6
HIDDEN2
 62
     1
100
AcDbLine
 10
6.419048
 20
32.694412
 30
0.0
 11
1.580952
 21
32.694412
 31
0.0
  0
LINE
  5
1B5
330
1F
100
AcDbEntity
  8
109
  6
HIDDEN2
 62
     1
100
AcDbLine
 10
30.86327
 20
24.7314
 30
0.0
 11
30.408108
 21
24.468613
 31
0.0
  0
LINE
  5
1B6
330
1F
100
AcDbEntity
  8
109
  6
HIDDEN2
 62
     1
100
AcDbLine
 10
30.408108
 20
24.468613
 30
0.0
 11
31.052433
 21
23.113602
 31
0.0
  0
LINE
  5
1B7
330
1F
100
AcDbEntity
  8
109
  6
HIDDEN2
 62
     1
100
AcDbLine
 10
31.052433
 20
23.113602
 30
0.0
 11
31.554966
 21
21.699844
 31
0.0
  0
LINE
  5
1B8
330
1F
100
AcDbEntity
  8
109
  6
HIDDEN2
 62
     1
100
AcDbLine
 10
31.554974
 20
21.699844
 30
0.0
 11
32.062641
 21
21.835861
 31
0.0
  0
LINE
  5
1B9
330
1F
100
AcDbEntity
  8
109
  6
HIDDEN2
 62
     1
100
AcDbLine
 10
32.694202
 20
17.580948
 30
0.0
 11
32.168827
 21
17.580948
 31
0.0
  0
LINE
  5
1BA
330
1F
100
AcDbEntity
  8
109
  6
HIDDEN2
 62
     1
100
AcDbLine
 10
32.168819
 20
17.580948
 30
0.0
 11
32.169048
 21
17.499985
 31
0.0
  0
LINE
  5
1BB
330
1F
100
AcDbEntity
  8
109
  6
HIDDEN2
 62
     1
100
AcDbLine
 10
32.169048
 20
17.499985
 30
0.0
 11
32.169048
 21
14.419052
 31
0.0
  0
LINE
  5
1BC
330
1F
100
AcDbEntity
  8
109
  6
HIDDEN2
 62
     1
100
AcDbLine
 10
32.169048
 20
14.419052
 30
0.0
 11
32.694424
 21
14.419052
 31
0.0
  0
LINE
  5
1BD
330
1F
100
AcDbEntity
  8
109
  6
HIDDEN2
 62
     1
100
AcDbLine
 10
32.694424
 20
9.580948
 30
0.0
 11
32.169048
 21
9.580948
 31
0.0
  0
LINE
  5
1BE
330
1F
100
AcDbEntity
  8
109
  6
HIDDEN2
 62
     1
100
AcDbLine
 10
32.169048
 20
9.580948
 30
0.0
 11
32.169048
 21
6.419052
 31
0.0
  0
LINE
  5
1BF
330
1F
100
AcDbEntity
  8
109
  6
HIDDEN2
 62
     1
100
AcDbLine
 10
32.169048
 20
6.419052
 30
0.0
 11
32.694424
 21
6.419052
 31
0.0
  0
LINE
  5
1C0
330
1F
100
AcDbEntity
  8
109
  6
HIDDEN2
 62
     1
100
AcDbLine
 10
32.694424
 20
1.580948
 30
0.0
 11
32.169048
 21
1.580948
 31
0.0
  0
LINE
  5
1C1
330
1F
100
AcDbEntity
  8
109
  6
HIDDEN2
 62
     1
100
AcDbLine
 10
32.169048
 20
1.580948
 30
0.0
 11
32.169048
 21
-1.580948
 31
0.0
  0
LINE
  5
1C2
330
1F
100
AcDbEntity
  8
109
  6
HIDDEN2
 62
     1
100
AcDbLine
 10
32.169048
 20
-1.580948
 30
0.0
 11
32.694424
 21
-1.580948
 31
0.0
  0
LINE
  5
1C3
330
1F
100
AcDbEntity
  8
109
  6
HIDDEN2
 62
     1
100
AcDbLine
 10
32.694424
 20
-6.419052
 30
0.0
 11
32.169048
 21
-6.419052
 31
0.0
  0
LINE
  5
1C4
330
1F
100
AcDbEntity
  8
109
  6
HIDDEN2
 62
     1
100
AcDbLine
 10
32.169048
 20
-6.419052
 30
0.0
 11
32.169048
 21
-9.580948
 31
0.0
  0
LINE
  5
1C5
330
1F
100
AcDbEntity
  8
109
  6
HIDDEN2
 62
     1
100
AcDbLine
 10
32.169048
 20
-9.580948
 30
0.0
 11
32.694424
 21
-9.580948
 31
0.0
  0
LINE
  5
1C6
330
1F
100
AcDbEntity
  8
109
  6
HIDDEN2
 62
     1
100
AcDbLine
 10
32.694424
 20
-14.419052
 30
0.0
 11
32.169048
 21
-14.419052
 31
0.0
  0
LINE
  5
1C7
330
1F
100
AcDbEntity
  8
109
  6
HIDDEN2
 62
     1
100
AcDbLine
 10
32.169048
 20
-14.419052
 30
0.0
 11
32.169048
 21
-17.500015
 31
0.0
  0
LINE
  5
1C8
330
1F
100
AcDbEntity
  8
109
  6
HIDDEN2
 62
     1
100
AcDbLine
 10
32.169048
 20
-17.500015
 30
0.0
 11
32.168819
 21
-17.580978
 31
0.0
  0
LINE
  5
1C9
330
1F
100
AcDbEntity
  8
109
  6
HIDDEN2
 62
     1
100
AcDbLine
 10
32.168827
 20
-17.580948
 30
0.0
 11
32.694202
 21
-17.580948
 31
0.0
  0
LINE
  5
1CA
330
1F
100
AcDbEntity
  8
109
  6
HIDDEN2
 62
     1
100
AcDbLine
 10
32.062641
 20
-21.835892
 30
0.0
 11
31.554974
 21
-21.699844
 31
0.0
  0
LINE
  5
1CB
330
1F
100
AcDbEntity
  8
109
  6
HIDDEN2
 62
     1
100
AcDbLine
 10
31.554966
 20
-21.699875
 30
0.0
 11
31.052433
 21
-23.113632
 31
0.0
  0
LINE
  5
1CC
330
1F
100
AcDbEntity
  8
109
  6
HIDDEN2
 62
     1
100
AcDbLine
 10
31.052433
 20
-23.113632
 30
0.0
 11
30.408108
 21
-24.468643
 31
0.0
  0
LINE
  5
1CD
330
1F
100
AcDbEntity
  8
109
  6
HIDDEN2
 62
     1
100
AcDbLine
 10
30.408108
 20
-24.468613
 30
0.0
 11
30.86327
 21
-24.73143
 31
0.0
  0
LINE
  5
1CE
330
1F
100
AcDbEntity
  8
109
  6
HIDDEN2
 62
     1
100
AcDbLine
 10
28.865818
 20
-27.584091
 30
0.0
 11
28.4632
 21
-27.246262
 31
0.0
  0
LINE
  5
1CF
330
1F
100
AcDbEntity
  8
109
  6
HIDDEN2
 62
     1
100
AcDbLine
 10
28.463192
 20
-27.246262
 30
0.0
 11
27.872578
 21
-27.872604
 31
0.0
  0
LINE
  5
1D0
330
1F
100
AcDbEntity
  8
109
  6
HIDDEN2
 62
     1
100
AcDbLine
 10
27.872578
 20
-27.872604
 30
0.0
 11
27.246243
 21
-28.463211
 31
0.0
  0
LINE
  5
1D1
330
1F
100
AcDbEntity
  8
109
  6
HIDDEN2
 62
     1
100
AcDbLine
 10
27.246243
 20
-28.463211
 30
0.0
 11
27.58408
 21
-28.865829
 31
0.0
  0
LINE
  5
1D2
330
1F
100
AcDbEntity
  8
109
  6
HIDDEN2
 62
     1
100
AcDbLine
 10
24.731411
 20
-30.863266
 30
0.0
 11
24.468624
 21
-30.408127
 31
0.0
  0
LINE
  5
1D3
330
1F
100
AcDbEntity
  8
109
  6
HIDDEN2
 62
     1
100
AcDbLine
 10
24.468616
 20
-30.408127
 30
0.0
 11
23.113598
 21
-31.052444
 31
0.0
  0
LINE
  5
1D4
330
1F
100
AcDbEntity
  8
109
  6
HIDDEN2
 62
     1
100
AcDbLine
 10
23.113598
 20
-31.052444
 30
0.0
 11
21.699848
 21
-31.554977
 31
0.0
  0
LINE
  5
1D5
330
1F
100
AcDbEntity
  8
109
  6
HIDDEN2
 62
     1
100
AcDbLine
 10
21.699848
 20
-31.554977
 30
0.0
 11
21.83588
 21
-32.062637
 31
0.0
  0
LINE
  5
1D6
330
1F
100
AcDbEntity
  8
109
  6
HIDDEN2
 62
     1
100
AcDbLine
 10
17.580952
 20
-32.694199
 30
0.0
 11
17.580952
 21
-32.168839
 31
0.0
  0
LINE
  5
1D7
330
1F
100
AcDbEntity
  8
109
  6
HIDDEN2
 62
     1
100
AcDbLine
 10
17.580944
 20
-32.168839
 30
0.0
 11
17.499996
 21
-32.169052
 31
0.0
  0
LINE
  5
1D8
330
1F
100
AcDbEntity
  8
109
  6
HIDDEN2
 62
     1
100
AcDbLine
 10
17.499996
 20
-32.169052
 30
0.0
 11
14.419048
 21
-32.169052
 31
0.0
  0
LINE
  5
1D9
330
1F
100
AcDbEntity
  8
109
  6
HIDDEN2
 62
     1
100
AcDbLine
 10
14.419048
 20
-32.169052
 30
0.0
 11
14.419048
 21
-32.694412
 31
0.0
  0
LINE
  5
1DA
330
1F
100
AcDbEntity
  8
109
  6
HIDDEN2
 62
     1
100
AcDbLine
 10
9.580952
 20
-32.694412
 30
0.0
 11
9.580952
 21
-32.169052
 31
0.0
  0
LINE
  5
1DB
330
1F
100
AcDbEntity
  8
109
  6
HIDDEN2
 62
     1
100
AcDbLine
 10
9.580952
 20
-32.169052
 30
0.0
 11
6.419048
 21
-32.169052
 31
0.0
  0
LINE
  5
1DC
330
1F
100
AcDbEntity
  8
109
  6
HIDDEN2
 62
     1
100
AcDbLine
 10
6.419048
 20
-32.169052
 30
0.0
 11
6.419048
 21
-32.694412
 31
0.0
  0
LINE
  5
1DD
330
1F
100
AcDbEntity
  8
109
  6
HIDDEN2
 62
     1
100
AcDbLine
 10
1.580952
 20
-32.694412
 30
0.0
 11
1.580952
 21
-32.169052
 31
0.0
  0
LINE
  5
1DE
330
1F
100
AcDbEntity
  8
109
  6
HIDDEN2
 62
     1
100
AcDbLine
 10
1.580952
 20
32.169052
 30
0.0
 11
1.580952
 21
32.694412
 31
0.0
  0
LINE
  5
1DF
330
1F
100
AcDbEntity
  8
109
  6
HIDDEN2
 62
     1
100
AcDbLine
 10
6.419048
 20
32.694412
 30
0.0
 11
6.419048
 21
32.169052
 31
0.0
  0
LINE
  5
1E0
330
1F
100
AcDbEntity
  8
109
  6
HIDDEN2
 62
     1
100
AcDbLine
 10
6.419048
 20
32.169052
 30
0.0
 11
9.580952
 21
32.169052
 31
0.0
  0
LINE
  5
1E1
330
1F
100
AcDbEntity
  8
109
  6
HIDDEN2
 62
     1
100
AcDbLine
 10
9.580952
 20
32.169052
 30
0.0
 11
9.580952
 21
32.694412
 31
0.0
  0
LINE
  5
1E2
330
1F
100
AcDbEntity
  8
109
  6
HIDDEN2
 62
     1
100
AcDbLine
 10
14.419048
 20
32.694412
 30
0.0
 11
14.419048
 21
32.169052
 31
0.0
  0
LINE
  5
1E3
330
1F
100
AcDbEntity
  8
109
  6
HIDDEN2
 62
     1
100
AcDbLine
 10
14.419048
 20
32.169052
 30
0.0
 11
17.500004
 21
32.169052
 31
0.0
  0
LINE
  5
1E4
330
1F
100
AcDbEntity
  8
109
  6
HIDDEN2
 62
     1
100
AcDbLine
 10
17.499996
 20
32.169022
 30
0.0
 11
17.580944
 21
32.168808
 31
0.0
  0
LINE
  5
1E5
330
1F
100
AcDbEntity
  8
109
  6
HIDDEN2
 62
     1
100
AcDbLine
 10
17.580952
 20
32.168808
 30
0.0
 11
17.580952
 21
32.694199
 31
0.0
  0
LINE
  5
1E6
330
1F
100
AcDbEntity
  8
109
  6
HIDDEN2
 62
     1
100
AcDbLine
 10
21.83588
 20
32.062637
 30
0.0
 11
21.699848
 21
31.554977
 31
0.0
  0
LINE
  5
1E7
330
1F
100
AcDbEntity
  8
109
  6
HIDDEN2
 62
     1
100
AcDbLine
 10
21.699848
 20
31.554947
 30
0.0
 11
23.113598
 21
31.052414
 31
0.0
  0
LINE
  5
1E8
330
1F
100
AcDbEntity
  8
109
  6
HIDDEN2
 62
     1
100
AcDbLine
 10
23.113598
 20
31.052414
 30
0.0
 11
24.468616
 21
30.408096
 31
0.0
  0
LINE
  5
1E9
330
1F
100
AcDbEntity
  8
109
  6
HIDDEN2
 62
     1
100
AcDbLine
 10
24.468624
 20
30.408096
 30
0.0
 11
24.731411
 21
30.863266
 31
0.0
  0
LINE
  5
1EA
330
1F
100
AcDbEntity
  8
109
  6
HIDDEN2
 62
     1
100
AcDbLine
 10
27.58408
 20
28.865799
 30
0.0
 11
27.246243
 21
28.463181
 31
0.0
  0
LINE
  5
1EB
330
1F
100
AcDbEntity
  8
109
  6
HIDDEN2
 62
     1
100
AcDbLine
 10
27.246243
 20
28.463181
 30
0.0
 11
27.872578
 21
27.872574
 31
0.0
  0
LINE
  5
1EC
330
1F
100
AcDbEntity
  8
109
  6
HIDDEN2
 62
     1
100
AcDbLine
 10
27.872578
 20
27.872574
 30
0.0
 11
28.463192
 21
27.246231
 31
0.0
  0
LINE
  5
1ED
330
1F
100
AcDbEntity
  8
109
  6
HIDDEN2
 62
     1
100
AcDbLine
 10
28.4632
 20
27.246231
 30
0.0
 11
28.865818
 21
27.584091
 31
0.0
  0
LINE
  5
1EE
330
1F
100
AcDbEntity
  8
109
  6
HIDDEN2
 62
     1
100
AcDbLine
 10
-1.580952
 20
32.169052
 30
0.0
 11
1.580952
 21
32.169052
 31
0.0
  0
LINE
  5
1EF
330
1F
100
AcDbEntity
  8
109
  6
HIDDEN2
 62
     1
100
AcDbLine
 10
-1.580952
 20
-32.169052
 30
0.0
 11
1.580952
 21
-32.169052
 31
0.0
  0
LINE
  5
1F0
330
1F
100
AcDbEntity
  8
109
  6
HIDDEN2
 62
     1
100
AcDbLine
 10
-17.500004
 20
32.104721
 30
0.0
 11
17.500004
 21
32.104721
 31
0.0
  0
LINE
  5
1F1
330
1F
100
AcDbEntity
  8
109
  6
HIDDEN2
 62
     1
100
AcDbLine
 10
-17.500004
 20
-32.104721
 30
0.0
 11
17.499996
 21
-32.104721
 31
0.0
  0
LINE
  5
1F2
330
1F
100
AcDbEntity
  8
109
  6
HIDDEN2
 62
     1
100
AcDbLine
 10
-17.500004
 20
32.017441
 30
0.0
 11
17.500004
 21
32.017441
 31
0.0
  0
LINE
  5
1F3
330
1F
100
AcDbEntity
  8
109
  6
HIDDEN2
 62
     1
100
AcDbLine
 10
-17.500004
 20
-32.017471
 30
0.0
 11
17.499996
 21
-32.017471
 31
0.0
  0
LINE
  5
1F4
330
1F
100
AcDbEntity
  8
109
  6
HIDDEN2
 62
     1
100
AcDbLine
 10
-24.582623
 20
25.082535
 30
0.0
 11
24.582623
 21
25.082535
 31
0.0
  0
LINE
  5
1F5
330
1F
100
AcDbEntity
  8
109
  6
HIDDEN2
 62
     1
100
AcDbLine
 10
25.082546
 20
-24.582626
 30
0.0
 11
25.082546
 21
24.582626
 31
0.0
  0
LINE
  5
1F6
330
1F
100
AcDbEntity
  8
109
  6
HIDDEN2
 62
     1
100
AcDbLine
 10
-25.082546
 20
-24.582626
 30
0.0
 11
-25.082546
 21
24.582626
 31
0.0
  0
LINE
  5
1F7
330
1F
100
AcDbEntity
  8
109
  6
HIDDEN2
 62
     1
100
AcDbLine
 10
-24.582623
 20
-25.082535
 30
0.0
 11
24.582623
 21
-25.082535
 31
0.0
  0
LINE
  5
1F8
330
1F
100
AcDbEntity
  8
109
  6
HIDDEN2
 62
     1
100
AcDbLine
 10
-25.082546
 20
24.582626
 30
0.0
 11
-25.015575
 21
24.832596
 31
0.0
  0
LINE
  5
1F9
330
1F
100
AcDbEntity
  8
109
  6
HIDDEN2
 62
     1
100
AcDbLine
 10
-25.015575
 20
24.832596
 30
0.0
 11
-24.8326
 21
25.015579
 31
0.0
  0
LINE
  5
1FA
330
1F
100
AcDbEntity
  8
109
  6
HIDDEN2
 62
     1
100
AcDbLine
 10
-24.8326
 20
25.015579
 30
0.0
 11
-24.582623
 21
25.082535
 31
0.0
  0
LINE
  5
1FB
330
1F
100
AcDbEntity
  8
109
  6
HIDDEN2
 62
     1
100
AcDbLine
 10
25.082546
 20
24.582626
 30
0.0
 11
25.015575
 21
24.832596
 31
0.0
  0
LINE
  5
1FC
330
1F
100
AcDbEntity
  8
109
  6
HIDDEN2
 62
     1
100
AcDbLine
 10
25.015575
 20
24.832596
 30
0.0
 11
24.8326
 21
25.015579
 31
0.0
  0
LINE
  5
1FD
330
1F
100
AcDbEntity
  8
109
  6
HIDDEN2
 62
     1
100
AcDbLine
 10
24.8326
 20
25.015579
 30
0.0
 11
24.582623
 21
25.082535
 31
0.0
  0
LINE
  5
1FE
330
1F
100
AcDbEntity
  8
109
  6
HIDDEN2
 62
     1
100
AcDbLine
 10
25.082546
 20
-24.582626
 30
0.0
 11
25.015575
 21
-24.832596
 31
0.0
  0
LINE
  5
1FF
330
1F
100
AcDbEntity
  8
109
  6
HIDDEN2
 62
     1
100
AcDbLine
 10
25.015575
 20
-24.832596
 30
0.0
 11
24.8326
 21
-25.015579
 31
0.0
  0
LINE
  5
200
330
1F
100
AcDbEntity
  8
109
  6
HIDDEN2
 62
     1
100
AcDbLine
 10
24.8326
 20
-25.015579
 30
0.0
 11
24.582623
 21
-25.082535
 31
0.0
  0
LINE
  5
201
330
1F
100
AcDbEntity
  8
109
  6
HIDDEN2
 62
     1
100
AcDbLine
 10
-25.082546
 20
-24.582626
 30
0.0
 11
-25.015575
 21
-24.832596
 31
0.0
  0
LINE
  5
202
330
1F
100
AcDbEntity
  8
109
  6
HIDDEN2
 62
     1
100
AcDbLine
 10
-25.015575
 20
-24.832596
 30
0.0
 11
-24.8326
 21
-25.015579
 31
0.0
  0
LINE
  5
203
330
1F
100
AcDbEntity
  8
109
  6
HIDDEN2
 62
     1
100
AcDbLine
 10
-24.8326
 20
-25.015579
 30
0.0
 11
-24.582623
 21
-25.082535
 31
0.0
  0
LINE
  5
204
330
1F
100
AcDbEntity
  8
109
  6
HIDDEN2
 62
     1
100
AcDbLine
 10
250.0
 20
25.0
 30
0.0
 11
252.0
 21
25.0
 31
0.0
  0
LINE
  5
205
330
1F
100
AcDbEntity
  8
109
  6
HIDDEN2
 62
     1
100
AcDbLine
 10
250.0
 20
-25.0
 30
0.0
 11
252.0
 21
-25.0
 31
0.0
  0
LINE
  5
206
330
1F
100
AcDbEntity
  8
109
  6
HIDDEN2
 62
     1
100
AcDbLine
 10
25.0
 20
-250.0
 30
0.0
 11
25.0
 21
-252.0
 31
0.0
  0
LINE
  5
207
330
1F
100
AcDbEntity
  8
109
  6
HIDDEN2
 62
     1
100
AcDbLine
 10
25.082544
 20
-250.000001
 30
0.0
 11
24.803264
 21
-234.000001
 31
0.0
  0
LINE
  5
208
330
1F
100
AcDbEntity
  8
109
  6
HIDDEN2
 62
     1
100
AcDbLine
 10
24.803264
 20
-234.000001
 30
0.0
 11
-24.803264
 21
-233.999999
 31
0.0
  0
LINE
  5
209
330
1F
100
AcDbEntity
  8
109
  6
HIDDEN2
 62
     1
100
AcDbLine
 10
-25.082545
 20
-249.999999
 30
0.0
 11
-24.803264
 21
-233.999999
 31
0.0
  0
LINE
  5
20A
330
1F
100
AcDbEntity
  8
109
  6
HIDDEN2
 62
     1
100
AcDbLine
 10
-25.0
 20
-250.0
 30
0.0
 11
-25.0
 21
-252.0
 31
0.0
  0
MTEXT
  5
22D
330
1F
100
AcDbEntity
  8
109
  6
CONTINUOUS
 62
     7
100
AcDbMText
 10
125.0
 20
-185.0
 30
0.0
 40
5.0
 41
0.0
 71
     7
 72
     1
  1
Einlassmuschel^M\P42425300001-0
  7
FSB
1001
ACAD
1000
MTEXTBEGIN
1070
    73
1070
     2
1070
    44
1040
0.839983
1000
MTEXTEND
  0
LINE
  5
22E
330
1F
100
AcDbEntity
  8
109
  6
CONTINUOUS
 62
     7
100
AcDbLine
 10
-34.999996
 20
-252.0
 30
0.0
 11
35.000004
 21
-252.0
 31
0.0
  0
LINE
  5
22F
330
1F
100
AcDbEntity
  8
109
  6
CONTINUOUS
 62
     7
100
AcDbLine
 10
35.000004
 20
-250.0
 30
0.0
 11
-34.999996
 21
-250.0
 31
0.0
  0
LINE
  5
230
330
1F
100
AcDbEntity
  8
109
  6
CONTINUOUS
 62
     7
100
AcDbLine
 10
32.694209
 20
-244.999999
 30
0.0
 11
-32.694201
 21
-244.999999
 31
0.0
  0
LINE
  5
231
330
1F
100
AcDbEntity
  8
109
  6
CONTINUOUS
 62
     7
100
AcDbLine
 10
31.749943
 20
-232.999999
 30
0.0
 11
-31.749935
 21
-232.999999
 31
0.0
  0
LINE
  5
232
330
1F
100
AcDbEntity
  8
109
  6
CONTINUOUS
 62
     7
100
AcDbLine
 10
233.0
 20
-31.74997
 30
0.0
 11
233.0
 21
31.749909
 31
0.0
  0
LINE
  5
233
330
1F
100
AcDbEntity
  8
109
  6
CONTINUOUS
 62
     7
100
AcDbLine
 10
244.999999
 20
-31.555003
 30
0.0
 11
244.999999
 21
-28.865845
 31
0.0
  0
LINE
  5
234
330
1F
100
AcDbEntity
  8
109
  6
CONTINUOUS
 62
     7
100
AcDbLine
 10
244.999999
 20
-28.463228
 30
0.0
 11
244.999999
 21
-24.731444
 31
0.0
  0
LINE
  5
235
330
1F
100
AcDbEntity
  8
109
  6
CONTINUOUS
 62
     7
100
AcDbLine
 10
244.999999
 20
-24.468654
 30
0.0
 11
244.999999
 21
24.468594
 31
0.0
  0
LINE
  5
236
330
1F
100
AcDbEntity
  8
109
  6
CONTINUOUS
 62
     7
100
AcDbLine
 10
244.999999
 20
24.731383
 30
0.0
 11
244.999999
 21
28.463167
 31
0.0
  0
LINE
  5
237
330
1F
100
AcDbEntity
  8
109
  6
CONTINUOUS
 62
     7
100
AcDbLine
 10
244.999999
 20
28.865784
 30
0.0
 11
244.999999
 21
31.554942
 31
0.0
  0
LINE
  5
238
330
1F
100
AcDbEntity
  8
109
  6
CONTINUOUS
 62
     7
100
AcDbLine
 10
250.0
 20
34.99997
 30
0.0
 11
250.0
 21
-35.00003
 31
0.0
  0
LINE
  5
239
330
1F
100
AcDbEntity
  8
109
  6
CONTINUOUS
 62
     7
100
AcDbLine
 10
252.0
 20
-35.00003
 30
0.0
 11
252.0
 21
34.99997
 31
0.0
  0
LINE
  5
23A
330
1F
100
AcDbEntity
  8
109
  6
CONTINUOUS
 62
     7
100
AcDbLine
 10
-24.5
 20
-24.7
 30
0.0
 11
24.5
 21
-24.7
 31
0.0
  0
LINE
  5
23B
330
1F
100
AcDbEntity
  8
109
  6
CONTINUOUS
 62
     7
100
AcDbLine
 10
24.7
 20
-24.5
 30
0.0
 11
24.7
 21
24.5
 31
0.0
  0
LINE
  5
23C
330
1F
100
AcDbEntity
  8
109
  6
CONTINUOUS
 62
     7
100
AcDbLine
 10
24.5
 20
24.7
 30
0.0
 11
-24.5
 21
24.7
 31
0.0
  0
LINE
  5
23D
330
1F
100
AcDbEntity
  8
109
  6
CONTINUOUS
 62
     7
100
AcDbLine
 10
-24.7
 20
24.5
 30
0.0
 11
-24.7
 21
-24.5
 31
0.0
  0
ARC
  5
23E
330
1F
100
AcDbEntity
  8
109
  6
CONTINUOUS
 62
     7
100
AcDbCircle
 10
-24.5
 20
24.5
 30
0.0
 40
0.2
100
AcDbArc
 50
90.0
 51
180.0
  0
ARC
  5
23F
330
1F
100
AcDbEntity
  8
109
  6
CONTINUOUS
 62
     7
100
AcDbCircle
 10
24.5
 20
24.5
 30
0.0
 40
0.2
100
AcDbArc
 50
0.0
 51
90.0
  0
ARC
  5
240
330
1F
100
AcDbEntity
  8
109
  6
CONTINUOUS
 62
     7
100
AcDbCircle
 10
-24.5
 20
-24.5
 30
0.0
 40
0.2
100
AcDbArc
 50
180.0
 51
270.0
  0
ARC
  5
241
330
1F
100
AcDbEntity
  8
109
  6
CONTINUOUS
 62
     7
100
AcDbCircle
 10
24.5
 20
-24.5
 30
0.0
 40
0.2
100
AcDbArc
 50
270.0
 51
360.0
  0
LINE
  5
242
330
1F
100
AcDbEntity
  8
109
  6
HIDDEN2
 62
     1
100
AcDbLine
 10
252.0
 20
24.7
 30
0.0
 11
250.0
 21
24.7
 31
0.0
  0
LINE
  5
243
330
1F
100
AcDbEntity
  8
109
  6
HIDDEN2
 62
     1
100
AcDbLine
 10
252.0
 20
-24.7
 30
0.0
 11
250.0
 21
-24.7
 31
0.0
  0
LINE
  5
244
330
1F
100
AcDbEntity
  8
109
  6
HIDDEN2
 62
     1
100
AcDbLine
 10
24.7
 20
-252.0
 30
0.0
 11
24.7
 21
-250.0
 31
0.0
  0
LINE
  5
245
330
1F
100
AcDbEntity
  8
109
  6
HIDDEN2
 62
     1
100
AcDbLine
 10
-24.7
 20
-252.0
 30
0.0
 11
-24.7
 21
-250.0
 31
0.0
  0
ENDSEC
  0
SECTION
  2
OBJECTS
  0
DICTIONARY
  5
C
330
0
100
AcDbDictionary
  3
ACAD_GROUP
350
D
  3
ACAD_LAYOUT
350
1A
  3
ACAD_MLEADERSTYLE
350
268
  3
ACAD_MLINESTYLE
350
17
  3
ACAD_PLOTSETTINGS
350
19
  3
ACAD_SCALELIST
350
20B
  3
ACAD_VISUALSTYLE
350
2A
  3
ACDBHEADERROUNDTRIPXREC
350
246
  3
ACDBVARIABLEDICTIONARY
350
266
  0
DICTIONARY
  5
D
102
{ACAD_REACTORS
330
C
102
}
330
C
100
AcDbDictionary
  0
DICTIONARY
  5
1A
102
{ACAD_REACTORS
330
C
102
}
330
C
100
AcDbDictionary
  0
DICTIONARY
  5
268
102
{ACAD_REACTORS
330
C
102
}
330
C
100
AcDbDictionary
  0
DICTIONARY
  5
17
102
{ACAD_REACTORS
330
C
102
}
330
C
100
AcDbDictionary
  3
STANDARD
350
18
  0
DICTIONARY
  5
19
102
{ACAD_REACTORS
330
C
102
}
330
C
100
AcDbDictionary
  0
DICTIONARY
  5
20B
102
{ACAD_REACTORS
330
C
102
}
330
C
100
AcDbDictionary
  3
A0
350
20C
  3
A1
350
20D
  3
A2
350
20E
  3
A3
350
20F
  3
A4
350
210
  3
A5
350
211
  3
A6
350
212
  3
A7
350
213
  3
A8
350
214
  3
A9
350
215
  3
B0
350
216
  3
B1
350
217
  3
B2
350
218
  3
B3
350
219
  3
B4
350
21A
  3
B5
350
21B
  3
B6
350
21C
  3
B7
350
21D
  3
B8
350
21E
  3
B9
350
21F
  3
C0
350
220
  3
C1
350
221
  3
C2
350
222
  3
C3
350
223
  3
C4
350
224
  3
C5
350
225
  3
C6
350
226
  3
C7
350
227
  3
C8
350
228
  3
C9
350
229
  3
D0
350
22A
  3
D1
350
22B
  3
D2
350
22C
  0
DICTIONARY
  5
2A
102
{ACAD_REACTORS
330
C
102
}
330
C
100
AcDbDictionary
  3
2DWIREFRAME
350
2F
  3
3D_HIDDEN
350
31
  3
3DWIREFRAME
350
30
  3
BASIC
350
32
  3
BRIGHTEN
350
36
  3
COLORCHANGE
350
3A
  3
CONCEPTUAL
350
34
  3
DIM
350
35
  3
FACEPATTERN
350
39
  3
FLAT
350
2B
  3
FLATWITHEDGES
350
2C
  3
GOURAUD
350
2D
  3
GOURAUDWITHEDGES
350
2E
  3
LINEPATTERN
350
38
  3
REALISTIC
350
33
  3
THICKEN
350
37
  0
DICTIONARY
  5
246
102
{ACAD_REACTORS
330
C
102
}
330
C
100
AcDbDictionary
  3
CEPSNTYPE
350
24F
  3
DIMSTYLEDATA
350
265
  3
FINGERPRINTGUID
350
250
  3
HYPERLINKBASE
350
249
  3
INSUNITS
350
24E
  3
LAYOUTDICT
350
24B
  3
LWETCUNION
350
24D
  3
PLOTSETDICT
350
24C
  3
PSVPSCALE
350
252
  3
PUCSBASE
350
255
  3
PUCSORGBACK
350
25B
  3
PUCSORGBOTTOM
350
257
  3
PUCSORGFRONT
350
25A
  3
PUCSORGLEFT
350
258
  3
PUCSORGRIGHT
350
259
  3
PUCSORGTOP
350
256
  3
PUCSORTHOREF
350
253
  3
PUCSORTHOVIEW
350
254
  3
STYLESHEET
350
24A
  3
TSTACKALIGN
350
247
  3
TSTACKSIZE
350
248
  3
UCSBASE
350
25E
  3
UCSORGBACK
350
264
  3
UCSORGBOTTOM
350
260
  3
UCSORGFRONT
350
263
  3
UCSORGLEFT
350
261
  3
UCSORGRIGHT
350
262
  3
UCSORGTOP
350
25F
  3
UCSORTHOREF
350
25C
  3
UCSORTHOVIEW
350
25D
  3
VERSIONGUID
350
251
  0
DICTIONARY
  5
266
102
{ACAD_REACTORS
330
C
102
}
330
C
100
AcDbDictionary
  3
CANNOSCALE
350
26B
  3
PSOLHEIGHT
350
26A
  3
PSOLWIDTH
350
269
  0
MLINESTYLE
  5
18
102
{ACAD_REACTORS
330
17
102
}
330
17
100
AcDbMlineStyle
  2
Standard
 70
     0
  3

 62
   256
 51
90.0
 52
90.0
 71
     2
 49
0.5
 62
   256
  6
BYLAYER
 49
-0.5
 62
   256
  6
BYLAYER
  0
ACAD_PROXY_OBJECT
  5
20C
102
{ACAD_REACTORS
330
20B
102
}
330
20B
100
AcDbProxyObject
 90
      499
 91
      502
 93
       41
310
903313A31580
  0
ACAD_PROXY_OBJECT
  5
20D
102
{ACAD_REACTORS
330
20B
102
}
330
20B
100
AcDbProxyObject
 90
      499
 91
      502
 93
      105
310
903313A324000000000000004000
  0
ACAD_PROXY_OBJECT
  5
20E
102
{ACAD_REACTORS
330
20B
102
}
330
20B
100
AcDbProxyObject
 90
      499
 91
      502
 93
      105
310
903313A344000000000000104000
  0
ACAD_PROXY_OBJECT
  5
20F
102
{ACAD_REACTORS
330
20B
102
}
330
20B
100
AcDbProxyObject
 90
      499
 91
      502
 93
      105
310
903313A354000000000000144000
  0
ACAD_PROXY_OBJECT
  5
210
102
{ACAD_REACTORS
330
20B
102
}
330
20B
100
AcDbProxyObject
 90
      499
 91
      502
 93
      105
310
903313A384000000000000204000
  0
ACAD_PROXY_OBJECT
  5
211
102
{ACAD_REACTORS
330
20B
102
}
330
20B
100
AcDbProxyObject
 90
      499
 91
      502
 93
      113
310
904313A31304000000000000244000
  0
ACAD_PROXY_OBJECT
  5
212
102
{ACAD_REACTORS
330
20B
102
}
330
20B
100
AcDbProxyObject
 90
      499
 91
      502
 93
      113
310
904313A31364000000000000304000
  0
ACAD_PROXY_OBJECT
  5
213
102
{ACAD_REACTORS
330
20B
102
}
330
20B
100
AcDbProxyObject
 90
      499
 91
      502
 93
      113
310
904313A32304000000000000344000
  0
ACAD_PROXY_OBJECT
  5
214
102
{ACAD_REACTORS
330
20B
102
}
330
20B
100
AcDbProxyObject
 90
      499
 91
      502
 93
      113
310
904313A333040000000000003E4000
  0
ACAD_PROXY_OBJECT
  5
215
102
{ACAD_REACTORS
330
20B
102
}
330
20B
100
AcDbProxyObject
 90
      499
 91
      502
 93
      113
310
904313A34304000000000000444000
  0
ACAD_PROXY_OBJECT
  5
216
102
{ACAD_REACTORS
330
20B
102
}
330
20B
100
AcDbProxyObject
 90
      499
 91
      502
 93
      113
310
904313A35304000000000000494000
  0
ACAD_PROXY_OBJECT
  5
217
102
{ACAD_REACTORS
330
20B
102
}
330
20B
100
AcDbProxyObject
 90
      499
 91
      502
 93
      121
310
905313A3130304000000000000594000
  0
ACAD_PROXY_OBJECT
  5
218
102
{ACAD_REACTORS
330
20B
102
}
330
20B
100
AcDbProxyObject
 90
      499
 91
      502
 93
      105
310
903323A310000000000000010100
  0
ACAD_PROXY_OBJECT
  5
219
102
{ACAD_REACTORS
330
20B
102
}
330
20B
100
AcDbProxyObject
 90
      499
 91
      502
 93
      105
310
903343A310000000000000410100
  0
ACAD_PROXY_OBJECT
  5
21A
102
{ACAD_REACTORS
330
20B
102
}
330
20B
100
AcDbProxyObject
 90
      499
 91
      502
 93
      105
310
903383A310000000000000810100
  0
ACAD_PROXY_OBJECT
  5
21B
102
{ACAD_REACTORS
330
20B
102
}
330
20B
100
AcDbProxyObject
 90
      499
 91
      502
 93
      113
310
90431303A310000000000000910100
  0
ACAD_PROXY_OBJECT
  5
21C
102
{ACAD_REACTORS
330
20B
102
}
330
20B
100
AcDbProxyObject
 90
      499
 91
      502
 93
      121
310
9053130303A310000000000001650100
  0
ACAD_PROXY_OBJECT
  5
21D
102
{ACAD_REACTORS
330
20B
102
}
330
20B
100
AcDbProxyObject
 90
      499
 91
      502
 93
      257
310
90E312F31323822203D2031272D3022000000000000200FC000000000000284000
  0
ACAD_PROXY_OBJECT
  5
21E
102
{ACAD_REACTORS
330
20B
102
}
330
20B
100
AcDbProxyObject
 90
      499
 91
      502
 93
      249
310
90D312F363422203D2031272D3022000000000000240FC000000000000284000
  0
ACAD_PROXY_OBJECT
  5
21F
102
{ACAD_REACTORS
330
20B
102
}
330
20B
100
AcDbProxyObject
 90
      499
 91
      502
 93
      249
310
90D312F333222203D2031272D3022000000000000280FC000000000000284000
  0
ACAD_PROXY_OBJECT
  5
220
102
{ACAD_REACTORS
330
20B
102
}
330
20B
100
AcDbProxyObject
 90
      499
 91
      502
 93
      249
310
90D312F313622203D2031272D30220000000000002C0FC000000000000284000
  0
ACAD_PROXY_OBJECT
  5
221
102
{ACAD_REACTORS
330
20B
102
}
330
20B
100
AcDbProxyObject
 90
      499
 91
      502
 93
      249
310
90D332F333222203D2031272D30220000000000002E0FC000000000000284000
  0
ACAD_PROXY_OBJECT
  5
222
102
{ACAD_REACTORS
330
20B
102
}
330
20B
100
AcDbProxyObject
 90
      499
 91
      502
 93
      241
310
90C312F3822203D2031272D3022000000000000300FC000000000000284000
  0
ACAD_PROXY_OBJECT
  5
223
102
{ACAD_REACTORS
330
20B
102
}
330
20B
100
AcDbProxyObject
 90
      499
 91
      502
 93
      249
310
90D332F313622203D2031272D3022000000000000320FC000000000000284000
  0
ACAD_PROXY_OBJECT
  5
224
102
{ACAD_REACTORS
330
20B
102
}
330
20B
100
AcDbProxyObject
 90
      499
 91
      502
 93
      241
310
90C312F3422203D2031272D3022000000000000340FC000000000000284000
  0
ACAD_PROXY_OBJECT
  5
225
102
{ACAD_REACTORS
330
20B
102
}
330
20B
100
AcDbProxyObject
 90
      499
 91
      502
 93
      241
310
90C332F3822203D2031272D3022000000000000360FC000000000000284000
  0
ACAD_PROXY_OBJECT
  5
226
102
{ACAD_REACTORS
330
20B
102
}
330
20B
100
AcDbProxyObject
 90
      499
 91
      502
 93
      241
310
90C312F3222203D2031272D3022000000000000380FC000000000000284000
  0
ACAD_PROXY_OBJECT
  5
227
102
{ACAD_REACTORS
330
20B
102
}
330
20B
100
AcDbProxyObject
 90
      499
 91
      502
 93
      241
310
90C332F3422203D2031272D30220000000000003A0FC000000000000284000
  0
ACAD_PROXY_OBJECT
  5
228
102
{ACAD_REACTORS
330
20B
102
}
330
20B
100
AcDbProxyObject
 90
      499
 91
      502
 93
      161
310
90A3122203D2031272D30224000000000000284000
  0
ACAD_PROXY_OBJECT
  5
229
102
{ACAD_REACTORS
330
20B
102
}
330
20B
100
AcDbProxyObject
 90
      499
 91
      502
 93
      257
310
90E312D312F3222203D2031272D30220000000000003E0FC000000000000284000
  0
ACAD_PROXY_OBJECT
  5
22A
102
{ACAD_REACTORS
330
20B
102
}
330
20B
100
AcDbProxyObject
 90
      499
 91
      502
 93
      225
310
90A3322203D2031272D302200000000000002100000000000000284000
  0
ACAD_PROXY_OBJECT
  5
22B
102
{ACAD_REACTORS
330
20B
102
}
330
20B
100
AcDbProxyObject
 90
      499
 91
      502
 93
      225
310
90A3622203D2031272D302200000000000006100000000000000284000
  0
ACAD_PROXY_OBJECT
  5
22C
102
{ACAD_REACTORS
330
20B
102
}
330
20B
100
AcDbProxyObject
 90
      499
 91
      502
 93
      249
310
90D31272D3022203D2031272D30220000000000000A100000000000000284000
  0
ACAD_PROXY_OBJECT
  5
2F
102
{ACAD_REACTORS
330
2A
102
}
330
2A
100
AcDbProxyObject
 90
      499
 91
      501
 93
      436
310
42CC9915DA5C99599C985B595049028333333333333E3BF0000000000000FB0107901411070040501600405405064090741402480A0340
1001
ACAD
1000
AcDbSavedByObjectVersion
1070
     0
  0
ACAD_PROXY_OBJECT
  5
31
102
{ACAD_REACTORS
330
2A
102
}
330
2A
100
AcDbProxyObject
 90
      499
 91
      501
 93
      500
310
424CD108121A5919195B90640502408333333333333E3BF0000000000000FB01079024090700405020000000000001110200405405064090740C02480A0340
1001
ACAD
1000
AcDbSavedByObjectVersion
1070
     0
  0
ACAD_PROXY_OBJECT
  5
30
102
{ACAD_REACTORS
330
2A
102
}
330
2A
100
AcDbProxyObject
 90
      499
 91
      501
 93
      436
310
42CCD915DA5C99599C985B595059028333333333333E3BF0000000000000FB0107901411070040501600405405064090741402480A0340
1001
ACAD
1000
AcDbSavedByObjectVersion
1070
     0
  0
ACAD_PROXY_OBJECT
  5
32
102
{ACAD_REACTORS
330
2A
102
}
330
2A
100
AcDbProxyObject
 90
      499
 91
      501
 93
      388
310
4150985CDA58D07406404333333333333E3BF0000000000000FB0107A41107004050150841D405064090741402480A0350
1001
ACAD
1000
AcDbSavedByObjectVersion
1070
     0
  0
ACAD_PROXY_OBJECT
  5
36
102
{ACAD_REACTORS
330
2A
102
}
330
2A
100
AcDbProxyObject
 90
      499
 91
      501
 93
      428
310
42109C9A59DA1D195B90C409028333333333333E3BF0000000000000FB010790141107004050150841D405064090741402480A029950
1001
ACAD
1000
AcDbSavedByObjectVersion
1070
     0
  0
ACAD_PROXY_OBJECT
  5
3A
102
{ACAD_REACTORS
330
2A
102
}
330
2A
100
AcDbProxyObject
 90
      499
 91
      501
 93
      452
310
42D0DBDB1BDC90DA185B99D95104090240C333333333333E3BF0000000000000FB0108901411070040501508421405064090741402480A0350
1001
ACAD
1000
AcDbSavedByObjectVersion
1070
     0
  0
ACAD_PROXY_OBJECT
  5
34
102
{ACAD_REACTORS
330
2A
102
}
330
2A
100
AcDbProxyObject
 90
      499
 91
      501
 93
      500
310
4290DBDB98D95C1D1D585B10940D028333333333333E3BF0000000000000FB0107902409070040501000000000000111010841D405064090740C02480A0340
1001
ACAD
1000
AcDbSavedByObjectVersion
1070
     0
  0
ACAD_PROXY_OBJECT
  5
35
102
{ACAD_REACTORS
330
2A
102
}
330
2A
100
AcDbProxyObject
 90
      499
 91
      501
 93
      412
310
40D11A5B50B409028333333333333E3BF0000000000000FB010790141107004050150841D405064090741402480A02677FFFFFD0
1001
ACAD
1000
AcDbSavedByObjectVersion
1070
     0
  0
ACAD_PROXY_OBJECT
  5
39
102
{ACAD_REACTORS
330
2A
102
}
330
2A
100
AcDbProxyObject
 90
      499
 91
      501
 93
      444
310
42D19858D95C185D1D195C9B90F409028333333333333E3BF0000000000000FB010790141107004050150841D405064090741402480A0350
1001
ACAD
1000
AcDbSavedByObjectVersion
1070
     0
  0
ACAD_PROXY_OBJECT
  5
2B
102
{ACAD_REACTORS
330
2A
102
}
330
2A
100
AcDbProxyObject
 90
      499
 91
      501
 93
      388
310
41119B185D240901404333333333333E3BF0000000000000F9010740A41107004050150841D405064090741402480A1B50
1001
ACAD
1000
AcDbSavedByObjectVersion
1070
     0
  0
ACAD_PROXY_OBJECT
  5
2C
102
{ACAD_REACTORS
330
2A
102
}
330
2A
100
AcDbProxyObject
 90
      499
 91
      501
 93
      476
310
43519B185D15DA5D1A115919D95CD0140901404333333333333E3BF0000000000000F9010740901411070040501600405405064090741402480A1B50
1001
ACAD
1000
AcDbSavedByObjectVersion
1070
     0
  0
ACAD_PROXY_OBJECT
  5
2D
102
{ACAD_REACTORS
330
2A
102
}
330
2A
100
AcDbProxyObject
 90
      499
 91
      501
 93
      412
310
41D1DBDD5C985D5910240902404333333333333E3BF0000000000000F9010740A411070040501641D405064090741402480A1B50
1001
ACAD
1000
AcDbSavedByObjectVersion
1070
     0
  0
ACAD_PROXY_OBJECT
  5
2E
102
{ACAD_REACTORS
330
2A
102
}
330
2A
100
AcDbProxyObject
 90
      499
 91
      501
 93
      500
310
4411DBDD5C985D5915DA5D1A115919D95CD0340902404333333333333E3BF0000000000000F9010740901411070040501600405405064090741402480A1B50
1001
ACAD
1000
AcDbSavedByObjectVersion
1070
     0
  0
ACAD_PROXY_OBJECT
  5
38
102
{ACAD_REACTORS
330
2A
102
}
330
2A
100
AcDbProxyObject
 90
      499
 91
      501
 93
      444
310
42D31A5B995C185D1D195C9B90E409028333333333333E3BF0000000000000FB010790141107004050750841D405064090741402483A0350
1001
ACAD
1000
AcDbSavedByObjectVersion
1070
     0
  0
ACAD_PROXY_OBJECT
  5
33
102
{ACAD_REACTORS
330
2A
102
}
330
2A
100
AcDbProxyObject
 90
      499
 91
      501
 93
      420
310
425499585B1A5CDD1A58D08409028333333333333E3BF0000000000000FB01079019070040501508421405064090741402480A1B40
1001
ACAD
1000
AcDbSavedByObjectVersion
1070
     0
  0
ACAD_PROXY_OBJECT
  5
37
102
{ACAD_REACTORS
330
2A
102
}
330
2A
100
AcDbProxyObject
 90
      499
 91
      501
 93
      412
310
41D51A1A58DAD95B90D409028333333333333E3BF0000000000000FB010790141107004050150C41D405064090741402480A0350
1001
ACAD
1000
AcDbSavedByObjectVersion
1070
     0
  0
ACAD_PROXY_OBJECT
  5
24F
102
{ACAD_REACTORS
330
246
102
}
330
246
100
AcDbProxyObject
 90
      499
 91
      504
 93
       58
310
4196800000000000
  0
ACAD_PROXY_OBJECT
  5
265
102
{ACAD_REACTORS
330
246
102
}
330
246
100
AcDbProxyObject
 90
      499
 91
      504
 93
      306
310
497A00C180079114D51653117A80C040079ECB811500550044400000000000003A80C040079F40
  0
ACAD_PROXY_OBJECT
  5
250
102
{ACAD_REACTORS
330
246
102
}
330
246
100
AcDbProxyObject
 90
      499
 91
      504
 93
      354
310
4AC0400980079ED0CD4CD0510CCC8CCB50CC108C4B4D0E108C0B4E4C918D8B4C8D505190CD0CD0504E4E0C5F40
  0
ACAD_PROXY_OBJECT
  5
249
102
{ACAD_REACTORS
330
246
102
}
330
246
100
AcDbProxyObject
 90
      499
 91
      504
 93
       50
310
41404000000780
  0
ACAD_PROXY_OBJECT
  5
24E
102
{ACAD_REACTORS
330
246
102
}
330
246
100
AcDbProxyObject
 90
      499
 91
      504
 93
       58
310
4196800100000000
  0
ACAD_PROXY_OBJECT
  5
24B
102
{ACAD_REACTORS
330
246
102
}
330
246
100
AcDbProxyObject
 90
      499
 91
      504
 93
       90
310
429500468000000000000000
  0
ACAD_PROXY_OBJECT
  5
24D
102
{ACAD_REACTORS
330
246
102
}
330
246
100
AcDbProxyObject
 90
      499
 91
      504
 93
       58
310
419680074A800000
  0
ACAD_PROXY_OBJECT
  5
24C
102
{ACAD_REACTORS
330
246
102
}
330
246
100
AcDbProxyObject
 90
      499
 91
      504
 93
       90
310
429500464000000000000000
  0
ACAD_PROXY_OBJECT
  5
252
102
{ACAD_REACTORS
330
246
102
}
330
246
100
AcDbProxyObject
 90
      499
 91
      504
 93
       90
310
428A00000000000000000000
  0
ACAD_PROXY_OBJECT
  5
255
102
{ACAD_REACTORS
330
246
102
}
330
246
100
AcDbProxyObject
 90
      499
 91
      504
 93
       90
310
429500400000000000000000
  0
ACAD_PROXY_OBJECT
  5
25B
102
{ACAD_REACTORS
330
246
102
}
330
246
100
AcDbProxyObject
 90
      499
 91
      504
 93
      218
310
46828000000000000000000000000000000000000000000000000000
  0
ACAD_PROXY_OBJECT
  5
257
102
{ACAD_REACTORS
330
246
102
}
330
246
100
AcDbProxyObject
 90
      499
 91
      504
 93
      218
310
46828000000000000000000000000000000000000000000000000000
  0
ACAD_PROXY_OBJECT
  5
25A
102
{ACAD_REACTORS
330
246
102
}
330
246
100
AcDbProxyObject
 90
      499
 91
      504
 93
      218
310
46828000000000000000000000000000000000000000000000000000
  0
ACAD_PROXY_OBJECT
  5
258
102
{ACAD_REACTORS
330
246
102
}
330
246
100
AcDbProxyObject
 90
      499
 91
      504
 93
      218
310
46828000000000000000000000000000000000000000000000000000
  0
ACAD_PROXY_OBJECT
  5
259
102
{ACAD_REACTORS
330
246
102
}
330
246
100
AcDbProxyObject
 90
      499
 91
      504
 93
      218
310
46828000000000000000000000000000000000000000000000000000
  0
ACAD_PROXY_OBJECT
  5
256
102
{ACAD_REACTORS
330
246
102
}
330
246
100
AcDbProxyObject
 90
      499
 91
      504
 93
      218
310
46828000000000000000000000000000000000000000000000000000
  0
ACAD_PROXY_OBJECT
  5
253
102
{ACAD_REACTORS
330
246
102
}
330
246
100
AcDbProxyObject
 90
      499
 91
      504
 93
       90
310
429500400000000000000000
  0
ACAD_PROXY_OBJECT
  5
254
102
{ACAD_REACTORS
330
246
102
}
330
246
100
AcDbProxyObject
 90
      499
 91
      504
 93
       42
310
411180000000
  0
ACAD_PROXY_OBJECT
  5
24A
102
{ACAD_REACTORS
330
246
102
}
330
246
100
AcDbProxyObject
 90
      499
 91
      504
 93
       50
310
41404000000780
  0
ACAD_PROXY_OBJECT
  5
247
102
{ACAD_REACTORS
330
246
102
}
330
246
100
AcDbProxyObject
 90
      499
 91
      504
 93
       58
310
4196800040000000
  0
ACAD_PROXY_OBJECT
  5
248
102
{ACAD_REACTORS
330
246
102
}
330
246
100
AcDbProxyObject
 90
      499
 91
      504
 93
       58
310
4196801180000000
  0
ACAD_PROXY_OBJECT
  5
25E
102
{ACAD_REACTORS
330
246
102
}
330
246
100
AcDbProxyObject
 90
      499
 91
      504
 93
       90
310
429500400000000000000000
  0
ACAD_PROXY_OBJECT
  5
264
102
{ACAD_REACTORS
330
246
102
}
330
246
100
AcDbProxyObject
 90
      499
 91
      504
 93
      218
310
46828000000000000000000000000000000000000000000000000000
  0
ACAD_PROXY_OBJECT
  5
260
102
{ACAD_REACTORS
330
246
102
}
330
246
100
AcDbProxyObject
 90
      499
 91
      504
 93
      218
310
46828000000000000000000000000000000000000000000000000000
  0
ACAD_PROXY_OBJECT
  5
263
102
{ACAD_REACTORS
330
246
102
}
330
246
100
AcDbProxyObject
 90
      499
 91
      504
 93
      218
310
46828000000000000000000000000000000000000000000000000000
  0
ACAD_PROXY_OBJECT
  5
261
102
{ACAD_REACTORS
330
246
102
}
330
246
100
AcDbProxyObject
 90
      499
 91
      504
 93
      218
310
46828000000000000000000000000000000000000000000000000000
  0
ACAD_PROXY_OBJECT
  5
262
102
{ACAD_REACTORS
330
246
102
}
330
246
100
AcDbProxyObject
 90
      499
 91
      504
 93
      218
310
46828000000000000000000000000000000000000000000000000000
  0
ACAD_PROXY_OBJECT
  5
25F
102
{ACAD_REACTORS
330
246
102
}
330
246
100
AcDbProxyObject
 90
      499
 91
      504
 93
      218
310
46828000000000000000000000000000000000000000000000000000
  0
ACAD_PROXY_OBJECT
  5
25C
102
{ACAD_REACTORS
330
246
102
}
330
246
100
AcDbProxyObject
 90
      499
 91
      504
 93
       90
310
429500400000000000000000
  0
ACAD_PROXY_OBJECT
  5
25D
102
{ACAD_REACTORS
330
246
102
}
330
246
100
AcDbProxyObject
 90
      499
 91
      504
 93
       42
310
411180000000
  0
ACAD_PROXY_OBJECT
  5
251
102
{ACAD_REACTORS
330
246
102
}
330
246
100
AcDbProxyObject
 90
      499
 91
      504
 93
      354
310
4AC0400980079ED19051508C50CCCC8B514C0C4E4B4C4C510D4B4E4C8E508B4C0C10CC11118C8D4D9150CD1F40
  0
DICTIONARYVAR
  5
26B
102
{ACAD_REACTORS
330
266
102
}
330
266
100
DictionaryVariables
280
     0
  1
1:1
  0
DICTIONARYVAR
  5
26A
102
{ACAD_REACTORS
330
266
102
}
330
266
100
DictionaryVariables
280
     0
  1
80.000000
  0
DICTIONARYVAR
  5
269
102
{ACAD_REACTORS
330
266
102
}
330
266
100
DictionaryVariables
280
     0
  1
5.000000
  0
ENDSEC
  0
EOF
