  0
SECTION
  2
HEADER
  9
$ACADVER
  1
AC1014
  9
$ACADMAINTVER
 70
     9
  9
$DWGCODEPAGE
  3
ANSI_1252
  9
$INSBASE
 10
0.0
 20
0.0
 30
0.0
  9
$EXTMIN
 10
-23.5
 20
-253.3564
 30
0.0
  9
$EXTMAX
 10
266.134216
 20
196.472046
 30
0.0
  9
$LIMMIN
 10
-23.5
 20
-253.3564
  9
$LIMMAX
 10
266.134216
 20
196.472046
  9
$ORTHOMODE
 70
     0
  9
$REGENMODE
 70
     1
  9
$FILLMODE
 70
     1
  9
$QTEXTMODE
 70
     0
  9
$MIRRTEXT
 70
     1
  9
$DRAGMODE
 70
     2
  9
$LTSCALE
 40
1.0
  9
$OSMODE
 70
    37
  9
$ATTMODE
 70
     1
  9
$TEXTSIZE
 40
2.5
  9
$TRACEWID
 40
1.0
  9
$TEXTSTYLE
  7
STANDARD
  9
$CLAYER
  8
0
  9
$CELTYPE
  6
BYLAYER
  9
$CECOLOR
 62
   256
  9
$CELTSCALE
 40
1.0
  9
$DELOBJ
 70
     1
  9
$DISPSILH
 70
     0
  9
$DIMSCALE
 40
1.0
  9
$DIMASZ
 40
2.5
  9
$DIMEXO
 40
0.625
  9
$DIMDLI
 40
3.75
  9
$DIMRND
 40
0.0
  9
$DIMDLE
 40
0.0
  9
$DIMEXE
 40
1.25
  9
$DIMTP
 40
0.0
  9
$DIMTM
 40
0.0
  9
$DIMTXT
 40
2.5
  9
$DIMCEN
 40
2.5
  9
$DIMTSZ
 40
0.0
  9
$DIMTOL
 70
     0
  9
$DIMLIM
 70
     0
  9
$DIMTIH
 70
     0
  9
$DIMTOH
 70
     0
  9
$DIMSE1
 70
     0
  9
$DIMSE2
 70
     0
  9
$DIMTAD
 70
     1
  9
$DIMZIN
 70
     8
  9
$DIMBLK
  1

  9
$DIMASO
 70
     1
  9
$DIMSHO
 70
     1
  9
$DIMPOST
  1

  9
$DIMAPOST
  1

  9
$DIMALT
 70
     0
  9
$DIMALTD
 70
     3
  9
$DIMALTF
 40
0.03937
  9
$DIMLFAC
 40
1.0
  9
$DIMTOFL
 70
     1
  9
$DIMTVP
 40
0.0
  9
$DIMTIX
 70
     0
  9
$DIMSOXD
 70
     0
  9
$DIMSAH
 70
     0
  9
$DIMBLK1
  1

  9
$DIMBLK2
  1

  9
$DIMSTYLE
  2
ISO-25
  9
$DIMCLRD
 70
     0
  9
$DIMCLRE
 70
     0
  9
$DIMCLRT
 70
     0
  9
$DIMTFAC
 40
1.0
  9
$DIMGAP
 40
0.625
  9
$DIMJUST
 70
     0
  9
$DIMSD1
 70
     0
  9
$DIMSD2
 70
     0
  9
$DIMTOLJ
 70
     0
  9
$DIMTZIN
 70
     8
  9
$DIMALTZ
 70
     0
  9
$DIMALTTZ
 70
     0
  9
$DIMFIT
 70
     3
  9
$DIMUPT
 70
     0
  9
$DIMUNIT
 70
     2
  9
$DIMDEC
 70
     2
  9
$DIMTDEC
 70
     2
  9
$DIMALTU
 70
     2
  9
$DIMALTTD
 70
     3
  9
$DIMTXSTY
  7
STANDARD
  9
$DIMAUNIT
 70
     0
  9
$LUNITS
 70
     2
  9
$LUPREC
 70
     4
  9
$SKETCHINC
 40
1.0
  9
$FILLETRAD
 40
10.0
  9
$AUNITS
 70
     0
  9
$AUPREC
 70
     0
  9
$MENU
  1
.
  9
$ELEVATION
 40
0.0
  9
$PELEVATION
 40
0.0
  9
$THICKNESS
 40
0.0
  9
$LIMCHECK
 70
     0
  9
$CHAMFERA
 40
10.0
  9
$CHAMFERB
 40
10.0
  9
$CHAMFERC
 40
20.0
  9
$CHAMFERD
 40
0.0
  9
$SKPOLY
 70
     0
  9
$TDCREATE
 40
2456248.2896411
  9
$TDUPDATE
 40
2456248.289641111
  9
$TDINDWG
 40
0.0000000116
  9
$TDUSRTIMER
 40
0.0000000116
  9
$USRTIMER
 70
     1
  9
$ANGBASE
 50
0.0
  9
$ANGDIR
 70
     0
  9
$PDMODE
 70
     0
  9
$PDSIZE
 40
0.0
  9
$PLINEWID
 40
0.0
  9
$COORDS
 70
     1
  9
$SPLFRAME
 70
     0
  9
$SPLINETYPE
 70
     6
  9
$SPLINESEGS
 70
     8
  9
$ATTDIA
 70
     0
  9
$ATTREQ
 70
     1
  9
$HANDLING
 70
     1
  9
$HANDSEED
  5
310
  9
$SURFTAB1
 70
     6
  9
$SURFTAB2
 70
     6
  9
$SURFTYPE
 70
     6
  9
$SURFU
 70
     6
  9
$SURFV
 70
     6
  9
$UCSNAME
  2

  9
$UCSORG
 10
0.0
 20
0.0
 30
0.0
  9
$UCSXDIR
 10
1.0
 20
0.0
 30
0.0
  9
$UCSYDIR
 10
0.0
 20
1.0
 30
0.0
  9
$PUCSNAME
  2

  9
$PUCSORG
 10
0.0
 20
0.0
 30
0.0
  9
$PUCSXDIR
 10
1.0
 20
0.0
 30
0.0
  9
$PUCSYDIR
 10
0.0
 20
1.0
 30
0.0
  9
$USERI1
 70
     0
  9
$USERI2
 70
     0
  9
$USERI3
 70
     0
  9
$USERI4
 70
     0
  9
$USERI5
 70
     0
  9
$USERR1
 40
0.0
  9
$USERR2
 40
0.0
  9
$USERR3
 40
0.0
  9
$USERR4
 40
0.0
  9
$USERR5
 40
0.0
  9
$WORLDVIEW
 70
     1
  9
$SHADEDGE
 70
     3
  9
$SHADEDIF
 70
    70
  9
$TILEMODE
 70
     1
  9
$MAXACTVP
 70
    64
  9
$PINSBASE
 10
0.0
 20
0.0
 30
0.0
  9
$PLIMCHECK
 70
     0
  9
$PEXTMIN
 10
1.000000E+20
 20
1.000000E+20
 30
1.000000E+20
  9
$PEXTMAX
 10
-1.000000E+20
 20
-1.000000E+20
 30
-1.000000E+20
  9
$PLIMMIN
 10
0.0
 20
0.0
  9
$PLIMMAX
 10
420.0
 20
297.0
  9
$UNITMODE
 70
     0
  9
$VISRETAIN
 70
     1
  9
$PLINEGEN
 70
     0
  9
$PSLTSCALE
 70
     1
  9
$TREEDEPTH
 70
  3020
  9
$PICKSTYLE
 70
     1
  9
$CMLSTYLE
  2
STANDARD
  9
$CMLJUST
 70
     0
  9
$CMLSCALE
 40
20.0
  9
$PROXYGRAPHICS
 70
     1
  9
$MEASUREMENT
 70
     1
  0
ENDSEC
  0
SECTION
  2
CLASSES
  0
CLASS
  1
ACDBDICTIONARYWDFLT
  2
AcDbDictionaryWithDefault
  3
ObjectDBX Classes
 90
        0
280
     0
281
     0
  0
CLASS
  1
VISUALSTYLE
  2
AcDbVisualStyle
  3
ObjectDBX Classes
 90
     4095
280
     0
281
     0
  0
CLASS
  1
SCALE
  2
AcDbScale
  3
ObjectDBX Classes
 90
     1153
280
     0
281
     0
  0
CLASS
  1
DICTIONARYVAR
  2
AcDbDictionaryVar
  3
ObjectDBX Classes
 90
        0
280
     0
281
     0
  0
CLASS
  1
XRECORD
  2
AcDbXrecord
  3
AutoCAD 2000
 90
        0
280
     0
281
     0
  0
CLASS
  1
LWPOLYLINE
  2
AcDbPolyline
  3
AutoCAD 2000
 90
        0
280
     0
281
     1
  0
CLASS
  1
HATCH
  2
AcDbHatch
  3
AutoCAD 2000
 90
        0
280
     0
281
     1
  0
CLASS
  1
ACDBPLACEHOLDER
  2
AcDbPlaceHolder
  3
ObjectDBX Classes
 90
        0
280
     0
281
     0
  0
CLASS
  1
LAYOUT
  2
AcDbLayout
  3
ObjectDBX Classes
 90
        0
280
     0
281
     0
  0
ENDSEC
  0
SECTION
  2
TABLES
  0
TABLE
  2
VPORT
  5
8
330
0
100
AcDbSymbolTable
 70
     1
  0
VPORT
  5
29
330
8
100
AcDbSymbolTableRecord
100
AcDbViewportTableRecord
  2
*ACTIVE
 70
     0
 10
0.0
 20
0.0
 11
1.0
 21
1.0
 12
344.186916
 22
148.5
 13
0.0
 23
0.0
 14
10.0
 24
10.0
 15
10.0
 25
10.0
 16
0.0
 26
0.0
 36
1.0
 17
0.0
 27
0.0
 37
0.0
 40
297.0
 41
1.972973
 42
50.0
 43
0.0
 44
0.0
 50
0.0
 51
0.0
 71
     0
 72
   100
 73
     1
 74
     3
 75
     0
 76
     0
 77
     0
 78
     0
  0
ENDTAB
  0
TABLE
  2
LTYPE
  5
5
330
0
100
AcDbSymbolTable
 70
     3
  0
LTYPE
  5
14
330
5
100
AcDbSymbolTableRecord
100
AcDbLinetypeTableRecord
  2
BYBLOCK
 70
     0
  3

 72
    65
 73
     0
 40
0.0
  0
LTYPE
  5
15
330
5
100
AcDbSymbolTableRecord
100
AcDbLinetypeTableRecord
  2
BYLAYER
 70
     0
  3

 72
    65
 73
     0
 40
0.0
  0
LTYPE
  5
16
330
5
100
AcDbSymbolTableRecord
100
AcDbLinetypeTableRecord
  2
CONTINUOUS
 70
     0
  3
Solid line
 72
    65
 73
     0
 40
0.0
  0
LTYPE
  5
3B
330
5
100
AcDbSymbolTableRecord
100
AcDbLinetypeTableRecord
  2
DASHDOT
 70
     0
  3
Dash dot __ . __ . __ . __ . __ . __ . __ . __
 72
    65
 73
     4
 40
25.4
 49
12.7
 74
     0
 49
-6.35
 74
     0
 49
0.0
 74
     0
 49
-6.35
 74
     0
  0
LTYPE
  5
6D
330
5
100
AcDbSymbolTableRecord
100
AcDbLinetypeTableRecord
  2
HIDDEN2
 70
     0
  3
Hidden (.5x) _ _ _ _ _ _ _ _ _ _ _ _ _ _ _ _ _ 
 72
    65
 73
     2
 40
4.7625
 49
3.175
 74
     0
 49
-1.5875
 74
     0
  0
ENDTAB
  0
TABLE
  2
LAYER
  5
2
330
0
100
AcDbSymbolTable
 70
     2
  0
LAYER
  5
10
330
2
100
AcDbSymbolTableRecord
100
AcDbLayerTableRecord
  2
0
 70
     1
 62
    -1
  6
DASHDOT
  0
LAYER
  5
3C
330
2
100
AcDbSymbolTableRecord
100
AcDbLayerTableRecord
  2
109
 70
     0
 62
     1
  6
DASHDOT
  0
ENDTAB
  0
TABLE
  2
STYLE
  5
3
330
0
100
AcDbSymbolTable
 70
     3
  0
STYLE
  5
11
330
3
100
AcDbSymbolTableRecord
100
AcDbTextStyleTableRecord
  2
STANDARD
 70
     0
 40
0.0
 41
1.0
 50
0.0
 71
     0
 42
2.5
  3
txt
  4

  0
STYLE
  5
3D
330
3
100
AcDbSymbolTableRecord
100
AcDbTextStyleTableRecord
  2
DEFAULT
 70
     0
 40
0.0
 41
1.0
 50
0.0
 71
     0
 42
0.2
  3

  4

1001
ACAD
1000
txt
1071
        0
  0
STYLE
  5
3E
330
3
100
AcDbSymbolTableRecord
100
AcDbTextStyleTableRecord
  2
FSB
 70
     0
 40
0.0
 41
1.0
 50
0.0
 71
     0
 42
0.2
  3

  4

1001
ACAD
1000
Arial
1071
        0
  0
ENDTAB
  0
TABLE
  2
VIEW
  5
6
330
0
100
AcDbSymbolTable
 70
     0
  0
ENDTAB
  0
TABLE
  2
UCS
  5
7
330
0
100
AcDbSymbolTable
 70
     0
  0
ENDTAB
  0
TABLE
  2
APPID
  5
9
330
0
100
AcDbSymbolTable
 70
     1
  0
APPID
  5
12
330
9
100
AcDbSymbolTableRecord
100
AcDbRegAppTableRecord
  2
ACAD
 70
     0
  0
ENDTAB
  0
TABLE
  2
DIMSTYLE
  5
A
330
0
100
AcDbSymbolTable
 70
     3
  0
DIMSTYLE
105
27
330
A
100
AcDbSymbolTableRecord
100
AcDbDimStyleTableRecord
  2
ISO-25
 70
     0
  3

  4

  5

  6

  7

 40
1.0
 41
2.5
 42
0.625
 43
3.75
 44
1.25
 45
0.0
 46
0.0
 47
0.0
 48
0.0
140
2.5
141
2.5
142
0.0
143
0.03937
144
1.0
145
0.0
146
1.0
147
0.625
 71
     0
 72
     0
 73
     0
 74
     0
 75
     0
 76
     0
 77
     1
 78
     8
170
     0
171
     3
172
     1
173
     0
174
     0
175
     0
176
     0
177
     0
178
     0
270
     2
271
     2
272
     2
273
     2
274
     3
340
11
275
     0
280
     0
281
     0
282
     0
283
     0
284
     8
285
     0
286
     0
287
     3
288
     0
  0
DIMSTYLE
105
3F
330
A
100
AcDbSymbolTableRecord
100
AcDbDimStyleTableRecord
  2
DEFAULT
 70
     0
  3
<>
  4

  5
CLOSED
  6

  7

 40
1.0
 41
4.375
 42
1.05
 43
0.38
 44
2.1
 45
0.0
 46
0.0
 47
0.0
 48
0.0
140
3.5
141
0.09
142
0.0
143
25.4
144
1.0
145
0.0
146
0.4
147
1.75
 71
     0
 72
     0
 73
     0
 74
     0
 75
     0
 76
     0
 77
     1
 78
     8
170
     0
171
     2
172
     0
173
     0
174
     0
175
     0
176
     0
177
     0
178
     1
270
     2
271
     2
272
     3
273
     2
274
     2
340
3D
275
     0
280
     0
281
     0
282
     0
283
     1
284
     8
285
     0
286
     0
287
     3
288
     0
  0
DIMSTYLE
105
47
330
A
100
AcDbSymbolTableRecord
100
AcDbDimStyleTableRecord
  2
FSB
 70
     0
  3
<>
  4

  5
CLOSED
  6

  7

 40
1.0
 41
4.375
 42
1.05
 43
0.38
 44
2.1
 45
0.0
 46
0.0
 47
0.0
 48
0.0
140
3.5
141
0.09
142
0.0
143
25.4
144
1.0
145
0.0
146
0.7
147
1.05
 71
     0
 72
     0
 73
     0
 74
     0
 75
     0
 76
     0
 77
     1
 78
     8
170
     0
171
     2
172
     0
173
     0
174
     0
175
     0
176
     1
177
     1
178
     2
270
     2
271
     2
272
     3
273
     2
274
     2
340
3E
275
     0
280
     0
281
     0
282
     0
283
     1
284
     8
285
     0
286
     0
287
     3
288
     0
  0
ENDTAB
  0
TABLE
  2
BLOCK_RECORD
  5
1
330
0
100
AcDbSymbolTable
 70
     2
  0
BLOCK_RECORD
  5
1F
330
1
100
AcDbSymbolTableRecord
100
AcDbBlockTableRecord
  2
*MODEL_SPACE
  0
BLOCK_RECORD
  5
1B
330
1
100
AcDbSymbolTableRecord
100
AcDbBlockTableRecord
  2
*PAPER_SPACE
  0
BLOCK_RECORD
  5
40
330
1
100
AcDbSymbolTableRecord
100
AcDbBlockTableRecord
  2
_CLOSED
  0
ENDTAB
  0
ENDSEC
  0
SECTION
  2
BLOCKS
  0
BLOCK
  5
20
330
1F
100
AcDbEntity
  8
0
100
AcDbBlockBegin
  2
*MODEL_SPACE
 70
     0
 10
0.0
 20
0.0
 30
0.0
  3
*MODEL_SPACE
  1

  0
ENDBLK
  5
21
330
1F
100
AcDbEntity
  8
0
100
AcDbBlockEnd
  0
BLOCK
  5
1C
330
1B
100
AcDbEntity
 67
     1
  8
0
100
AcDbBlockBegin
  2
*PAPER_SPACE
 70
     0
 10
0.0
 20
0.0
 30
0.0
  3
*PAPER_SPACE
  1

  0
ENDBLK
  5
1D
330
1B
100
AcDbEntity
 67
     1
  8
0
100
AcDbBlockEnd
  0
BLOCK
  5
41
330
40
100
AcDbEntity
  8
0
100
AcDbBlockBegin
  2
_CLOSED
 70
     0
 10
0.0
 20
0.0
 30
0.0
  3
_CLOSED
  1

  0
LINE
  5
43
330
40
100
AcDbEntity
  8
0
  6
BYBLOCK
 62
     0
100
AcDbLine
 10
-1.0
 20
0.166667
 30
0.0
 11
0.0
 21
0.0
 31
0.0
  0
LINE
  5
44
330
40
100
AcDbEntity
  8
0
  6
BYBLOCK
 62
     0
100
AcDbLine
 10
0.0
 20
0.0
 30
0.0
 11
-1.0
 21
-0.166667
 31
0.0
  0
LINE
  5
45
330
40
100
AcDbEntity
  8
0
  6
BYBLOCK
 62
     0
100
AcDbLine
 10
-1.0
 20
0.166667
 30
0.0
 11
-1.0
 21
-0.166667
 31
0.0
  0
LINE
  5
46
330
40
100
AcDbEntity
  8
0
  6
BYBLOCK
 62
     0
100
AcDbLine
 10
0.0
 20
0.0
 30
0.0
 11
-1.0
 21
0.0
 31
0.0
  0
ENDBLK
  5
42
330
40
100
AcDbEntity
  8
0
100
AcDbBlockEnd
  0
ENDSEC
  0
SECTION
  2
ENTITIES
  0
TEXT
  5
6A
330
1F
100
AcDbEntity
  8
0
  6
CONTINUOUS
 62
     2
 60
     1
100
AcDbText
 10
121.867624
 20
192.167053
 30
0.0
 40
3.5
  1
a
  7
FSB
 72
     1
 11
123.225624
 21
195.667053
 31
0.0
100
AcDbText
 73
     3
  0
TEXT
  5
6B
330
1F
100
AcDbEntity
  8
0
  6
CONTINUOUS
 62
     2
 60
     1
100
AcDbText
 10
121.867624
 20
77.243385
 30
0.0
 40
3.5
  1
b
  7
FSB
 72
     1
 11
123.225624
 21
80.743385
 31
0.0
100
AcDbText
 73
     3
  0
TEXT
  5
6C
330
1F
100
AcDbEntity
  8
0
  6
CONTINUOUS
 62
     2
 60
     1
100
AcDbText
 10
263.740231
 20
192.167053
 30
0.0
 40
3.5
  1
c
  7
FSB
 72
     1
 11
264.961731
 21
195.667053
 31
0.0
100
AcDbText
 73
     3
  0
LINE
  5
6E
330
1F
100
AcDbEntity
  8
109
  6
HIDDEN2
 62
     1
100
AcDbLine
 10
19.659597
 20
18.209459
 30
0.0
 11
19.659597
 21
21.790538
 31
0.0
  0
LINE
  5
6F
330
1F
100
AcDbEntity
  8
109
  6
HIDDEN2
 62
     1
100
AcDbLine
 10
19.659597
 20
26.209459
 30
0.0
 11
19.659597
 21
29.790538
 31
0.0
  0
LINE
  5
70
330
1F
100
AcDbEntity
  8
109
  6
HIDDEN2
 62
     1
100
AcDbLine
 10
19.659597
 20
34.209459
 30
0.0
 11
19.659597
 21
37.790538
 31
0.0
  0
LINE
  5
71
330
1F
100
AcDbEntity
  8
109
  6
HIDDEN2
 62
     1
100
AcDbLine
 10
19.659597
 20
42.209459
 30
0.0
 11
19.659597
 21
45.790538
 31
0.0
  0
LINE
  5
72
330
1F
100
AcDbEntity
  8
109
  6
HIDDEN2
 62
     1
100
AcDbLine
 10
19.659597
 20
50.209459
 30
0.0
 11
19.659597
 21
53.790538
 31
0.0
  0
ARC
  5
73
330
1F
100
AcDbEntity
  8
109
  6
HIDDEN2
 62
     1
100
AcDbCircle
 10
0.0
 20
54.999998
 30
0.0
 40
19.65959674214559
100
AcDbArc
 50
9.395682
 51
39.389538
  0
ARC
  5
74
330
1F
100
AcDbEntity
  8
109
  6
HIDDEN2
 62
     1
100
AcDbCircle
 10
0.0
 20
54.999998
 30
0.0
 40
19.65959674214559
100
AcDbArc
 50
50.610462
 51
84.389538
  0
ARC
  5
75
330
1F
100
AcDbEntity
  8
109
  6
HIDDEN2
 62
     1
100
AcDbCircle
 10
0.0
 20
54.999998
 30
0.0
 40
19.65959674214559
100
AcDbArc
 50
95.610462
 51
129.389538
  0
ARC
  5
76
330
1F
100
AcDbEntity
  8
109
  6
HIDDEN2
 62
     1
100
AcDbCircle
 10
0.0
 20
54.999998
 30
0.0
 40
19.65959674214558
100
AcDbArc
 50
140.610462
 51
170.604318
  0
LINE
  5
77
330
1F
100
AcDbEntity
  8
109
  6
HIDDEN2
 62
     1
100
AcDbLine
 10
19.659597
 20
-53.79054
 30
0.0
 11
19.659597
 21
-50.209462
 31
0.0
  0
LINE
  5
78
330
1F
100
AcDbEntity
  8
109
  6
HIDDEN2
 62
     1
100
AcDbLine
 10
19.659597
 20
-45.79054
 30
0.0
 11
19.659597
 21
-42.209462
 31
0.0
  0
LINE
  5
79
330
1F
100
AcDbEntity
  8
109
  6
HIDDEN2
 62
     1
100
AcDbLine
 10
19.659597
 20
-37.79054
 30
0.0
 11
19.659597
 21
-34.209462
 31
0.0
  0
LINE
  5
7A
330
1F
100
AcDbEntity
  8
109
  6
HIDDEN2
 62
     1
100
AcDbLine
 10
19.659597
 20
-29.79054
 30
0.0
 11
19.659597
 21
-26.209462
 31
0.0
  0
LINE
  5
7B
330
1F
100
AcDbEntity
  8
109
  6
HIDDEN2
 62
     1
100
AcDbLine
 10
19.659597
 20
-21.79054
 30
0.0
 11
19.659597
 21
-18.209462
 31
0.0
  0
LINE
  5
7C
330
1F
100
AcDbEntity
  8
109
  6
HIDDEN2
 62
     1
100
AcDbLine
 10
19.659597
 20
-13.79054
 30
0.0
 11
19.659597
 21
-10.209462
 31
0.0
  0
LINE
  5
7D
330
1F
100
AcDbEntity
  8
109
  6
HIDDEN2
 62
     1
100
AcDbLine
 10
19.659597
 20
-5.79054
 30
0.0
 11
19.659597
 21
-2.209462
 31
0.0
  0
LINE
  5
7E
330
1F
100
AcDbEntity
  8
109
  6
HIDDEN2
 62
     1
100
AcDbLine
 10
19.659597
 20
2.209459
 30
0.0
 11
19.659597
 21
5.790538
 31
0.0
  0
LINE
  5
7F
330
1F
100
AcDbEntity
  8
109
  6
HIDDEN2
 62
     1
100
AcDbLine
 10
19.659597
 20
10.209459
 30
0.0
 11
19.659597
 21
13.790538
 31
0.0
  0
LINE
  5
80
330
1F
100
AcDbEntity
  8
109
  6
HIDDEN2
 62
     1
100
AcDbLine
 10
18.950136
 20
54.999998
 30
0.0
 11
18.950136
 21
-55.000002
 31
0.0
  0
LINE
  5
81
330
1F
100
AcDbEntity
  8
109
  6
HIDDEN2
 62
     1
100
AcDbLine
 10
19.5
 20
54.999998
 30
0.0
 11
19.5
 21
-55.000002
 31
0.0
  0
LINE
  5
82
330
1F
100
AcDbEntity
  8
109
  6
HIDDEN2
 62
     1
100
AcDbLine
 10
19.412725
 20
54.999998
 30
0.0
 11
19.412725
 21
-55.000002
 31
0.0
  0
ARC
  5
83
330
1F
100
AcDbEntity
  8
109
  6
HIDDEN2
 62
     1
100
AcDbCircle
 10
0.0
 20
54.999998
 30
0.0
 40
19.5
100
AcDbArc
 50
360.0
 51
180.0
  0
ARC
  5
84
330
1F
100
AcDbEntity
  8
109
  6
HIDDEN2
 62
     1
100
AcDbCircle
 10
0.0
 20
54.999998
 30
0.0
 40
19.41272467535891
100
AcDbArc
 50
360.0
 51
180.0
  0
ARC
  5
85
330
1F
100
AcDbEntity
  8
109
  6
HIDDEN2
 62
     1
100
AcDbCircle
 10
0.0
 20
54.999998
 30
0.0
 40
18.95013596300698
100
AcDbArc
 50
360.0
 51
180.0
  0
ARC
  5
86
330
1F
100
AcDbEntity
  8
109
  6
HIDDEN2
 62
     1
100
AcDbCircle
 10
0.0
 20
54.999998
 30
0.0
 40
20.18408745702233
100
AcDbArc
 50
360.0
 51
9.149406
  0
LINE
  5
87
330
1F
100
AcDbEntity
  8
109
  6
HIDDEN2
 62
     1
100
AcDbLine
 10
19.927287
 20
58.209459
 30
0.0
 11
19.395853
 21
58.209459
 31
0.0
  0
LINE
  5
88
330
1F
100
AcDbEntity
  8
109
  6
HIDDEN2
 62
     1
100
AcDbLine
 10
15.193909
 20
67.47577
 30
0.0
 11
15.595714
 21
67.812925
 31
0.0
  0
ARC
  5
89
330
1F
100
AcDbEntity
  8
109
  6
HIDDEN2
 62
     1
100
AcDbCircle
 10
0.0
 20
54.999998
 30
0.0
 40
20.18408745702233
100
AcDbArc
 50
39.405401
 51
50.594599
  0
LINE
  5
8A
330
1F
100
AcDbEntity
  8
109
  6
HIDDEN2
 62
     1
100
AcDbLine
 10
12.812926
 20
70.595713
 30
0.0
 11
12.475772
 21
70.193907
 31
0.0
  0
LINE
  5
8B
330
1F
100
AcDbEntity
  8
109
  6
HIDDEN2
 62
     1
100
AcDbLine
 10
1.922013
 20
74.565417
 30
0.0
 11
1.967728
 21
75.087941
 31
0.0
  0
ARC
  5
8C
330
1F
100
AcDbEntity
  8
109
  6
HIDDEN2
 62
     1
100
AcDbCircle
 10
0.0
 20
54.999998
 30
0.0
 40
20.18408745702233
100
AcDbArc
 50
84.405401
 51
95.594599
  0
LINE
  5
8D
330
1F
100
AcDbEntity
  8
109
  6
HIDDEN2
 62
     1
100
AcDbLine
 10
-1.967728
 20
75.087941
 30
0.0
 11
-1.922013
 21
74.565417
 31
0.0
  0
LINE
  5
8E
330
1F
100
AcDbEntity
  8
109
  6
HIDDEN2
 62
     1
100
AcDbLine
 10
-12.475772
 20
70.193907
 30
0.0
 11
-12.812926
 21
70.595713
 31
0.0
  0
ARC
  5
8F
330
1F
100
AcDbEntity
  8
109
  6
HIDDEN2
 62
     1
100
AcDbCircle
 10
0.0
 20
54.999998
 30
0.0
 40
20.18408745702233
100
AcDbArc
 50
129.405401
 51
140.594599
  0
LINE
  5
90
330
1F
100
AcDbEntity
  8
109
  6
HIDDEN2
 62
     1
100
AcDbLine
 10
-15.595714
 20
67.812925
 30
0.0
 11
-15.193909
 21
67.47577
 31
0.0
  0
ARC
  5
91
330
1F
100
AcDbEntity
  8
109
  6
HIDDEN2
 62
     1
100
AcDbCircle
 10
0.0
 20
54.999998
 30
0.0
 40
20.18408745702233
100
AcDbArc
 50
170.850594
 51
180.0
  0
LINE
  5
92
330
1F
100
AcDbEntity
  8
109
  6
HIDDEN2
 62
     1
100
AcDbLine
 10
-19.395853
 20
58.209459
 30
0.0
 11
-19.927287
 21
58.209459
 31
0.0
  0
LINE
  5
93
330
1F
100
AcDbEntity
  8
109
  6
HIDDEN2
 62
     1
100
AcDbLine
 10
19.659597
 20
13.790538
 30
0.0
 11
20.184087
 21
13.790538
 31
0.0
  0
LINE
  5
94
330
1F
100
AcDbEntity
  8
109
  6
HIDDEN2
 62
     1
100
AcDbLine
 10
20.184087
 20
18.209459
 30
0.0
 11
20.184087
 21
13.790538
 31
0.0
  0
LINE
  5
95
330
1F
100
AcDbEntity
  8
109
  6
HIDDEN2
 62
     1
100
AcDbLine
 10
20.184087
 20
18.209459
 30
0.0
 11
19.659597
 21
18.209459
 31
0.0
  0
LINE
  5
96
330
1F
100
AcDbEntity
  8
109
  6
HIDDEN2
 62
     1
100
AcDbLine
 10
19.659597
 20
21.790538
 30
0.0
 11
20.184087
 21
21.790538
 31
0.0
  0
LINE
  5
97
330
1F
100
AcDbEntity
  8
109
  6
HIDDEN2
 62
     1
100
AcDbLine
 10
20.184087
 20
26.209459
 30
0.0
 11
20.184087
 21
21.790538
 31
0.0
  0
LINE
  5
98
330
1F
100
AcDbEntity
  8
109
  6
HIDDEN2
 62
     1
100
AcDbLine
 10
20.184087
 20
26.209459
 30
0.0
 11
19.659597
 21
26.209459
 31
0.0
  0
LINE
  5
99
330
1F
100
AcDbEntity
  8
109
  6
HIDDEN2
 62
     1
100
AcDbLine
 10
19.659597
 20
29.790538
 30
0.0
 11
20.184087
 21
29.790538
 31
0.0
  0
LINE
  5
9A
330
1F
100
AcDbEntity
  8
109
  6
HIDDEN2
 62
     1
100
AcDbLine
 10
20.184087
 20
34.209459
 30
0.0
 11
20.184087
 21
29.790538
 31
0.0
  0
LINE
  5
9B
330
1F
100
AcDbEntity
  8
109
  6
HIDDEN2
 62
     1
100
AcDbLine
 10
20.184087
 20
34.209459
 30
0.0
 11
19.659597
 21
34.209459
 31
0.0
  0
LINE
  5
9C
330
1F
100
AcDbEntity
  8
109
  6
HIDDEN2
 62
     1
100
AcDbLine
 10
19.659597
 20
37.790538
 30
0.0
 11
20.184087
 21
37.790538
 31
0.0
  0
LINE
  5
9D
330
1F
100
AcDbEntity
  8
109
  6
HIDDEN2
 62
     1
100
AcDbLine
 10
20.184087
 20
42.209459
 30
0.0
 11
20.184087
 21
37.790538
 31
0.0
  0
LINE
  5
9E
330
1F
100
AcDbEntity
  8
109
  6
HIDDEN2
 62
     1
100
AcDbLine
 10
20.184087
 20
42.209459
 30
0.0
 11
19.659597
 21
42.209459
 31
0.0
  0
LINE
  5
9F
330
1F
100
AcDbEntity
  8
109
  6
HIDDEN2
 62
     1
100
AcDbLine
 10
19.659597
 20
45.790538
 30
0.0
 11
20.184087
 21
45.790538
 31
0.0
  0
LINE
  5
A0
330
1F
100
AcDbEntity
  8
109
  6
HIDDEN2
 62
     1
100
AcDbLine
 10
20.184087
 20
50.209459
 30
0.0
 11
20.184087
 21
45.790538
 31
0.0
  0
LINE
  5
A1
330
1F
100
AcDbEntity
  8
109
  6
HIDDEN2
 62
     1
100
AcDbLine
 10
20.184087
 20
50.209459
 30
0.0
 11
19.659597
 21
50.209459
 31
0.0
  0
LINE
  5
A2
330
1F
100
AcDbEntity
  8
109
  6
HIDDEN2
 62
     1
100
AcDbLine
 10
20.184087
 20
54.999998
 30
0.0
 11
20.184087
 21
53.790538
 31
0.0
  0
LINE
  5
A3
330
1F
100
AcDbEntity
  8
109
  6
HIDDEN2
 62
     1
100
AcDbLine
 10
19.659597
 20
53.790538
 30
0.0
 11
20.184087
 21
53.790538
 31
0.0
  0
LINE
  5
A4
330
1F
100
AcDbEntity
  8
109
  6
HIDDEN2
 62
     1
100
AcDbLine
 10
20.184087
 20
-53.79054
 30
0.0
 11
20.184087
 21
-55.000002
 31
0.0
  0
LINE
  5
A5
330
1F
100
AcDbEntity
  8
109
  6
HIDDEN2
 62
     1
100
AcDbLine
 10
20.184087
 20
-53.79054
 30
0.0
 11
19.659597
 21
-53.79054
 31
0.0
  0
LINE
  5
A6
330
1F
100
AcDbEntity
  8
109
  6
HIDDEN2
 62
     1
100
AcDbLine
 10
19.659597
 20
-50.209462
 30
0.0
 11
20.184087
 21
-50.209462
 31
0.0
  0
LINE
  5
A7
330
1F
100
AcDbEntity
  8
109
  6
HIDDEN2
 62
     1
100
AcDbLine
 10
20.184087
 20
-45.79054
 30
0.0
 11
20.184087
 21
-50.209462
 31
0.0
  0
LINE
  5
A8
330
1F
100
AcDbEntity
  8
109
  6
HIDDEN2
 62
     1
100
AcDbLine
 10
20.184087
 20
-45.79054
 30
0.0
 11
19.659597
 21
-45.79054
 31
0.0
  0
LINE
  5
A9
330
1F
100
AcDbEntity
  8
109
  6
HIDDEN2
 62
     1
100
AcDbLine
 10
19.659597
 20
-42.209462
 30
0.0
 11
20.184087
 21
-42.209462
 31
0.0
  0
LINE
  5
AA
330
1F
100
AcDbEntity
  8
109
  6
HIDDEN2
 62
     1
100
AcDbLine
 10
20.184087
 20
-37.79054
 30
0.0
 11
20.184087
 21
-42.209462
 31
0.0
  0
LINE
  5
AB
330
1F
100
AcDbEntity
  8
109
  6
HIDDEN2
 62
     1
100
AcDbLine
 10
20.184087
 20
-37.79054
 30
0.0
 11
19.659597
 21
-37.79054
 31
0.0
  0
LINE
  5
AC
330
1F
100
AcDbEntity
  8
109
  6
HIDDEN2
 62
     1
100
AcDbLine
 10
19.659597
 20
-34.209462
 30
0.0
 11
20.184087
 21
-34.209462
 31
0.0
  0
LINE
  5
AD
330
1F
100
AcDbEntity
  8
109
  6
HIDDEN2
 62
     1
100
AcDbLine
 10
20.184087
 20
-29.79054
 30
0.0
 11
20.184087
 21
-34.209462
 31
0.0
  0
LINE
  5
AE
330
1F
100
AcDbEntity
  8
109
  6
HIDDEN2
 62
     1
100
AcDbLine
 10
20.184087
 20
-29.79054
 30
0.0
 11
19.659597
 21
-29.79054
 31
0.0
  0
LINE
  5
AF
330
1F
100
AcDbEntity
  8
109
  6
HIDDEN2
 62
     1
100
AcDbLine
 10
19.659597
 20
-26.209462
 30
0.0
 11
20.184087
 21
-26.209462
 31
0.0
  0
LINE
  5
B0
330
1F
100
AcDbEntity
  8
109
  6
HIDDEN2
 62
     1
100
AcDbLine
 10
20.184087
 20
-21.79054
 30
0.0
 11
20.184087
 21
-26.209462
 31
0.0
  0
LINE
  5
B1
330
1F
100
AcDbEntity
  8
109
  6
HIDDEN2
 62
     1
100
AcDbLine
 10
20.184087
 20
-21.79054
 30
0.0
 11
19.659597
 21
-21.79054
 31
0.0
  0
LINE
  5
B2
330
1F
100
AcDbEntity
  8
109
  6
HIDDEN2
 62
     1
100
AcDbLine
 10
19.659597
 20
-18.209462
 30
0.0
 11
20.184087
 21
-18.209462
 31
0.0
  0
LINE
  5
B3
330
1F
100
AcDbEntity
  8
109
  6
HIDDEN2
 62
     1
100
AcDbLine
 10
20.184087
 20
-13.79054
 30
0.0
 11
20.184087
 21
-18.209462
 31
0.0
  0
LINE
  5
B4
330
1F
100
AcDbEntity
  8
109
  6
HIDDEN2
 62
     1
100
AcDbLine
 10
20.184087
 20
-13.79054
 30
0.0
 11
19.659597
 21
-13.79054
 31
0.0
  0
LINE
  5
B5
330
1F
100
AcDbEntity
  8
109
  6
HIDDEN2
 62
     1
100
AcDbLine
 10
19.659597
 20
-10.209462
 30
0.0
 11
20.184087
 21
-10.209462
 31
0.0
  0
LINE
  5
B6
330
1F
100
AcDbEntity
  8
109
  6
HIDDEN2
 62
     1
100
AcDbLine
 10
20.184087
 20
-5.79054
 30
0.0
 11
20.184087
 21
-10.209462
 31
0.0
  0
LINE
  5
B7
330
1F
100
AcDbEntity
  8
109
  6
HIDDEN2
 62
     1
100
AcDbLine
 10
20.184087
 20
-5.79054
 30
0.0
 11
19.659597
 21
-5.79054
 31
0.0
  0
LINE
  5
B8
330
1F
100
AcDbEntity
  8
109
  6
HIDDEN2
 62
     1
100
AcDbLine
 10
19.659597
 20
-2.209462
 30
0.0
 11
20.184087
 21
-2.209462
 31
0.0
  0
LINE
  5
B9
330
1F
100
AcDbEntity
  8
109
  6
HIDDEN2
 62
     1
100
AcDbLine
 10
20.184087
 20
2.209459
 30
0.0
 11
20.184087
 21
-2.209462
 31
0.0
  0
LINE
  5
BA
330
1F
100
AcDbEntity
  8
109
  6
HIDDEN2
 62
     1
100
AcDbLine
 10
20.184087
 20
2.209459
 30
0.0
 11
19.659597
 21
2.209459
 31
0.0
  0
LINE
  5
BB
330
1F
100
AcDbEntity
  8
109
  6
HIDDEN2
 62
     1
100
AcDbLine
 10
19.659597
 20
5.790538
 30
0.0
 11
20.184087
 21
5.790538
 31
0.0
  0
LINE
  5
BC
330
1F
100
AcDbEntity
  8
109
  6
HIDDEN2
 62
     1
100
AcDbLine
 10
20.184087
 20
10.209459
 30
0.0
 11
20.184087
 21
5.790538
 31
0.0
  0
LINE
  5
BD
330
1F
100
AcDbEntity
  8
109
  6
HIDDEN2
 62
     1
100
AcDbLine
 10
20.184087
 20
10.209459
 30
0.0
 11
19.659597
 21
10.209459
 31
0.0
  0
ARC
  5
BE
330
1F
100
AcDbEntity
  8
109
  6
HIDDEN2
 62
     1
100
AcDbCircle
 10
0.0
 20
54.999998
 30
0.0
 40
19.51118450254184
100
AcDbArc
 50
360.0
 51
8.896551
  0
ARC
  5
BF
330
1F
100
AcDbEntity
  8
109
  6
HIDDEN2
 62
     1
100
AcDbCircle
 10
0.0
 20
54.999998
 30
0.0
 40
19.51118450254184
100
AcDbArc
 50
39.948838
 51
50.051162
  0
ARC
  5
C0
330
1F
100
AcDbEntity
  8
109
  6
HIDDEN2
 62
     1
100
AcDbCircle
 10
0.0
 20
54.999998
 30
0.0
 40
19.51118450254184
100
AcDbArc
 50
84.948838
 51
95.051162
  0
ARC
  5
C1
330
1F
100
AcDbEntity
  8
109
  6
HIDDEN2
 62
     1
100
AcDbCircle
 10
0.0
 20
54.999998
 30
0.0
 40
19.51118450254184
100
AcDbArc
 50
129.948838
 51
140.051162
  0
ARC
  5
C2
330
1F
100
AcDbEntity
  8
109
  6
HIDDEN2
 62
     1
100
AcDbCircle
 10
0.0
 20
54.999998
 30
0.0
 40
19.51118450254184
100
AcDbArc
 50
171.103449
 51
180.0
  0
LINE
  5
C3
330
1F
100
AcDbEntity
  8
109
  6
HIDDEN2
 62
     1
100
AcDbLine
 10
19.511185
 20
54.999998
 30
0.0
 11
19.511185
 21
53.982576
 31
0.0
  0
LINE
  5
C4
330
1F
100
AcDbEntity
  8
109
  6
HIDDEN2
 62
     1
100
AcDbLine
 10
19.511185
 20
50.017421
 30
0.0
 11
19.511185
 21
45.982576
 31
0.0
  0
LINE
  5
C5
330
1F
100
AcDbEntity
  8
109
  6
HIDDEN2
 62
     1
100
AcDbLine
 10
19.511185
 20
42.017421
 30
0.0
 11
19.511185
 21
37.982576
 31
0.0
  0
LINE
  5
C6
330
1F
100
AcDbEntity
  8
109
  6
HIDDEN2
 62
     1
100
AcDbLine
 10
19.511185
 20
34.017421
 30
0.0
 11
19.511185
 21
29.982576
 31
0.0
  0
LINE
  5
C7
330
1F
100
AcDbEntity
  8
109
  6
HIDDEN2
 62
     1
100
AcDbLine
 10
19.511185
 20
26.017421
 30
0.0
 11
19.511185
 21
21.982576
 31
0.0
  0
LINE
  5
C8
330
1F
100
AcDbEntity
  8
109
  6
HIDDEN2
 62
     1
100
AcDbLine
 10
19.511185
 20
18.017421
 30
0.0
 11
19.511185
 21
13.982576
 31
0.0
  0
LINE
  5
C9
330
1F
100
AcDbEntity
  8
109
  6
HIDDEN2
 62
     1
100
AcDbLine
 10
19.511185
 20
10.017421
 30
0.0
 11
19.511185
 21
5.982576
 31
0.0
  0
LINE
  5
CA
330
1F
100
AcDbEntity
  8
109
  6
HIDDEN2
 62
     1
100
AcDbLine
 10
19.511185
 20
2.017421
 30
0.0
 11
19.511185
 21
-2.017424
 31
0.0
  0
LINE
  5
CB
330
1F
100
AcDbEntity
  8
109
  6
HIDDEN2
 62
     1
100
AcDbLine
 10
19.511185
 20
-5.982579
 30
0.0
 11
19.511185
 21
-10.017424
 31
0.0
  0
LINE
  5
CC
330
1F
100
AcDbEntity
  8
109
  6
HIDDEN2
 62
     1
100
AcDbLine
 10
19.511185
 20
-13.982579
 30
0.0
 11
19.511185
 21
-18.017424
 31
0.0
  0
LINE
  5
CD
330
1F
100
AcDbEntity
  8
109
  6
HIDDEN2
 62
     1
100
AcDbLine
 10
19.511185
 20
-21.982579
 30
0.0
 11
19.511185
 21
-26.017423
 31
0.0
  0
LINE
  5
CE
330
1F
100
AcDbEntity
  8
109
  6
HIDDEN2
 62
     1
100
AcDbLine
 10
19.511185
 20
-29.982578
 30
0.0
 11
19.511185
 21
-34.017423
 31
0.0
  0
LINE
  5
CF
330
1F
100
AcDbEntity
  8
109
  6
HIDDEN2
 62
     1
100
AcDbLine
 10
19.511185
 20
-37.982578
 30
0.0
 11
19.511185
 21
-42.017423
 31
0.0
  0
LINE
  5
D0
330
1F
100
AcDbEntity
  8
109
  6
HIDDEN2
 62
     1
100
AcDbLine
 10
19.511185
 20
-45.982579
 30
0.0
 11
19.511185
 21
-50.017423
 31
0.0
  0
LINE
  5
D1
330
1F
100
AcDbEntity
  8
109
  6
HIDDEN2
 62
     1
100
AcDbLine
 10
19.511185
 20
-53.982578
 30
0.0
 11
19.511185
 21
-55.000002
 31
0.0
  0
LINE
  5
D2
330
1F
100
AcDbEntity
  8
109
  6
HIDDEN2
 62
     1
100
AcDbLine
 10
19.46616
 20
13.983974
 30
0.0
 11
19.659597
 21
13.790538
 31
0.0
  0
LINE
  5
D3
330
1F
100
AcDbEntity
  8
109
  6
HIDDEN2
 62
     1
100
AcDbLine
 10
19.46616
 20
18.016023
 30
0.0
 11
19.659597
 21
18.209459
 31
0.0
  0
LINE
  5
D4
330
1F
100
AcDbEntity
  8
109
  6
HIDDEN2
 62
     1
100
AcDbLine
 10
19.46616
 20
21.983974
 30
0.0
 11
19.659597
 21
21.790538
 31
0.0
  0
LINE
  5
D5
330
1F
100
AcDbEntity
  8
109
  6
HIDDEN2
 62
     1
100
AcDbLine
 10
19.46616
 20
26.016023
 30
0.0
 11
19.659597
 21
26.209459
 31
0.0
  0
LINE
  5
D6
330
1F
100
AcDbEntity
  8
109
  6
HIDDEN2
 62
     1
100
AcDbLine
 10
19.46616
 20
29.983974
 30
0.0
 11
19.659597
 21
29.790538
 31
0.0
  0
LINE
  5
D7
330
1F
100
AcDbEntity
  8
109
  6
HIDDEN2
 62
     1
100
AcDbLine
 10
19.46616
 20
34.016023
 30
0.0
 11
19.659597
 21
34.209459
 31
0.0
  0
LINE
  5
D8
330
1F
100
AcDbEntity
  8
109
  6
HIDDEN2
 62
     1
100
AcDbLine
 10
19.46616
 20
37.983974
 30
0.0
 11
19.659597
 21
37.790538
 31
0.0
  0
LINE
  5
D9
330
1F
100
AcDbEntity
  8
109
  6
HIDDEN2
 62
     1
100
AcDbLine
 10
19.46616
 20
42.016023
 30
0.0
 11
19.659597
 21
42.209459
 31
0.0
  0
LINE
  5
DA
330
1F
100
AcDbEntity
  8
109
  6
HIDDEN2
 62
     1
100
AcDbLine
 10
19.46616
 20
45.983974
 30
0.0
 11
19.659597
 21
45.790538
 31
0.0
  0
LINE
  5
DB
330
1F
100
AcDbEntity
  8
109
  6
HIDDEN2
 62
     1
100
AcDbLine
 10
19.46616
 20
50.016023
 30
0.0
 11
19.659597
 21
50.209459
 31
0.0
  0
LINE
  5
DC
330
1F
100
AcDbEntity
  8
109
  6
HIDDEN2
 62
     1
100
AcDbLine
 10
19.46616
 20
53.983974
 30
0.0
 11
19.659597
 21
53.790538
 31
0.0
  0
LINE
  5
DD
330
1F
100
AcDbEntity
  8
109
  6
HIDDEN2
 62
     1
100
AcDbLine
 10
19.231034
 20
58.016021
 30
0.0
 11
19.395853
 21
58.209459
 31
0.0
  0
LINE
  5
DE
330
1F
100
AcDbEntity
  8
109
  6
HIDDEN2
 62
     1
100
AcDbLine
 10
14.922175
 20
67.500275
 30
0.0
 11
15.193909
 21
67.47577
 31
0.0
  0
LINE
  5
DF
330
1F
100
AcDbEntity
  8
109
  6
HIDDEN2
 62
     1
100
AcDbLine
 10
12.500277
 20
69.922174
 30
0.0
 11
12.475772
 21
70.193907
 31
0.0
  0
LINE
  5
E0
330
1F
100
AcDbEntity
  8
109
  6
HIDDEN2
 62
     1
100
AcDbLine
 10
1.712541
 20
74.3906
 30
0.0
 11
1.922013
 21
74.565417
 31
0.0
  0
LINE
  5
E1
330
1F
100
AcDbEntity
  8
109
  6
HIDDEN2
 62
     1
100
AcDbLine
 10
-1.712541
 20
74.3906
 30
0.0
 11
-1.922013
 21
74.565417
 31
0.0
  0
LINE
  5
E2
330
1F
100
AcDbEntity
  8
109
  6
HIDDEN2
 62
     1
100
AcDbLine
 10
-12.500277
 20
69.922174
 30
0.0
 11
-12.475772
 21
70.193907
 31
0.0
  0
LINE
  5
E3
330
1F
100
AcDbEntity
  8
109
  6
HIDDEN2
 62
     1
100
AcDbLine
 10
-14.922175
 20
67.500275
 30
0.0
 11
-15.193909
 21
67.47577
 31
0.0
  0
LINE
  5
E4
330
1F
100
AcDbEntity
  8
109
  6
HIDDEN2
 62
     1
100
AcDbLine
 10
-19.231034
 20
58.016021
 30
0.0
 11
-19.395853
 21
58.209459
 31
0.0
  0
LINE
  5
E5
330
1F
100
AcDbEntity
  8
109
  6
HIDDEN2
 62
     1
100
AcDbLine
 10
19.46616
 20
-53.983977
 30
0.0
 11
19.659597
 21
-53.79054
 31
0.0
  0
LINE
  5
E6
330
1F
100
AcDbEntity
  8
109
  6
HIDDEN2
 62
     1
100
AcDbLine
 10
19.46616
 20
-50.016025
 30
0.0
 11
19.659597
 21
-50.209462
 31
0.0
  0
LINE
  5
E7
330
1F
100
AcDbEntity
  8
109
  6
HIDDEN2
 62
     1
100
AcDbLine
 10
19.46616
 20
-45.983977
 30
0.0
 11
19.659597
 21
-45.79054
 31
0.0
  0
LINE
  5
E8
330
1F
100
AcDbEntity
  8
109
  6
HIDDEN2
 62
     1
100
AcDbLine
 10
19.46616
 20
-42.016025
 30
0.0
 11
19.659597
 21
-42.209462
 31
0.0
  0
LINE
  5
E9
330
1F
100
AcDbEntity
  8
109
  6
HIDDEN2
 62
     1
100
AcDbLine
 10
19.46616
 20
-37.983977
 30
0.0
 11
19.659597
 21
-37.79054
 31
0.0
  0
LINE
  5
EA
330
1F
100
AcDbEntity
  8
109
  6
HIDDEN2
 62
     1
100
AcDbLine
 10
19.46616
 20
-34.016025
 30
0.0
 11
19.659597
 21
-34.209462
 31
0.0
  0
LINE
  5
EB
330
1F
100
AcDbEntity
  8
109
  6
HIDDEN2
 62
     1
100
AcDbLine
 10
19.46616
 20
-29.983977
 30
0.0
 11
19.659597
 21
-29.79054
 31
0.0
  0
LINE
  5
EC
330
1F
100
AcDbEntity
  8
109
  6
HIDDEN2
 62
     1
100
AcDbLine
 10
19.46616
 20
-26.016025
 30
0.0
 11
19.659597
 21
-26.209462
 31
0.0
  0
LINE
  5
ED
330
1F
100
AcDbEntity
  8
109
  6
HIDDEN2
 62
     1
100
AcDbLine
 10
19.46616
 20
-21.983977
 30
0.0
 11
19.659597
 21
-21.79054
 31
0.0
  0
LINE
  5
EE
330
1F
100
AcDbEntity
  8
109
  6
HIDDEN2
 62
     1
100
AcDbLine
 10
19.46616
 20
-18.016025
 30
0.0
 11
19.659597
 21
-18.209462
 31
0.0
  0
LINE
  5
EF
330
1F
100
AcDbEntity
  8
109
  6
HIDDEN2
 62
     1
100
AcDbLine
 10
19.46616
 20
-13.983977
 30
0.0
 11
19.659597
 21
-13.79054
 31
0.0
  0
LINE
  5
F0
330
1F
100
AcDbEntity
  8
109
  6
HIDDEN2
 62
     1
100
AcDbLine
 10
19.46616
 20
-10.016025
 30
0.0
 11
19.659597
 21
-10.209462
 31
0.0
  0
LINE
  5
F1
330
1F
100
AcDbEntity
  8
109
  6
HIDDEN2
 62
     1
100
AcDbLine
 10
19.46616
 20
-5.983977
 30
0.0
 11
19.659597
 21
-5.79054
 31
0.0
  0
LINE
  5
F2
330
1F
100
AcDbEntity
  8
109
  6
HIDDEN2
 62
     1
100
AcDbLine
 10
19.46616
 20
-2.016026
 30
0.0
 11
19.659597
 21
-2.209462
 31
0.0
  0
LINE
  5
F3
330
1F
100
AcDbEntity
  8
109
  6
HIDDEN2
 62
     1
100
AcDbLine
 10
19.46616
 20
2.016023
 30
0.0
 11
19.659597
 21
2.209459
 31
0.0
  0
LINE
  5
F4
330
1F
100
AcDbEntity
  8
109
  6
HIDDEN2
 62
     1
100
AcDbLine
 10
19.46616
 20
5.983974
 30
0.0
 11
19.659597
 21
5.790538
 31
0.0
  0
LINE
  5
F5
330
1F
100
AcDbEntity
  8
109
  6
HIDDEN2
 62
     1
100
AcDbLine
 10
19.46616
 20
10.016023
 30
0.0
 11
19.659597
 21
10.209459
 31
0.0
  0
ARC
  5
F6
330
1F
100
AcDbEntity
  8
109
  6
HIDDEN2
 62
     1
100
AcDbCircle
 10
0.001755
 20
55.000751
 30
0.0
 40
19.46425018083991
100
AcDbArc
 50
8.911763
 51
39.95446
  0
LINE
  5
F7
330
1F
100
AcDbEntity
  8
109
  6
HIDDEN2
 62
     1
100
AcDbLine
 10
14.957627
 20
67.528195
 30
0.0
 11
14.922175
 21
67.500275
 31
0.0
  0
LINE
  5
F8
330
1F
100
AcDbEntity
  8
109
  6
HIDDEN2
 62
     1
100
AcDbLine
 10
12.528196
 20
69.957626
 30
0.0
 11
12.500277
 21
69.922174
 31
0.0
  0
ARC
  5
F9
330
1F
100
AcDbEntity
  8
109
  6
HIDDEN2
 62
     1
100
AcDbCircle
 10
0.000586
 20
55.001414
 30
0.0
 40
19.46461770882078
100
AcDbArc
 50
50.045806
 51
84.954194
  0
LINE
  5
FA
330
1F
100
AcDbEntity
  8
109
  6
HIDDEN2
 62
     1
100
AcDbLine
 10
1.717867
 20
74.435411
 30
0.0
 11
1.712541
 21
74.3906
 31
0.0
  0
LINE
  5
FB
330
1F
100
AcDbEntity
  8
109
  6
HIDDEN2
 62
     1
100
AcDbLine
 10
-1.717867
 20
74.435411
 30
0.0
 11
-1.712541
 21
74.3906
 31
0.0
  0
ARC
  5
FC
330
1F
100
AcDbEntity
  8
109
  6
HIDDEN2
 62
     1
100
AcDbCircle
 10
-0.000586
 20
55.001414
 30
0.0
 40
19.46461770882165
100
AcDbArc
 50
95.045806
 51
129.954194
  0
LINE
  5
FD
330
1F
100
AcDbEntity
  8
109
  6
HIDDEN2
 62
     1
100
AcDbLine
 10
-12.528196
 20
69.957626
 30
0.0
 11
-12.500277
 21
69.922174
 31
0.0
  0
LINE
  5
FE
330
1F
100
AcDbEntity
  8
109
  6
HIDDEN2
 62
     1
100
AcDbLine
 10
-14.957627
 20
67.528195
 30
0.0
 11
-14.922175
 21
67.500275
 31
0.0
  0
ARC
  5
FF
330
1F
100
AcDbEntity
  8
109
  6
HIDDEN2
 62
     1
100
AcDbCircle
 10
-0.001755
 20
55.000751
 30
0.0
 40
19.46425018084017
100
AcDbArc
 50
140.04554
 51
171.088237
  0
LINE
  5
100
330
1F
100
AcDbEntity
  8
109
  6
HIDDEN2
 62
     1
100
AcDbLine
 10
-19.231034
 20
58.016021
 30
0.0
 11
-19.276449
 21
58.017421
 31
0.0
  0
LINE
  5
101
330
1F
100
AcDbEntity
  8
109
  6
HIDDEN2
 62
     1
100
AcDbLine
 10
19.276449
 20
58.017421
 30
0.0
 11
19.927287
 21
58.209459
 31
0.0
  0
LINE
  5
102
330
1F
100
AcDbEntity
  8
109
  6
HIDDEN2
 62
     1
100
AcDbLine
 10
14.957627
 20
67.528195
 30
0.0
 11
15.595714
 21
67.812925
 31
0.0
  0
LINE
  5
103
330
1F
100
AcDbEntity
  8
109
  6
HIDDEN2
 62
     1
100
AcDbLine
 10
12.528196
 20
69.957626
 30
0.0
 11
12.812926
 21
70.595713
 31
0.0
  0
LINE
  5
104
330
1F
100
AcDbEntity
  8
109
  6
HIDDEN2
 62
     1
100
AcDbLine
 10
1.717867
 20
74.435411
 30
0.0
 11
1.967728
 21
75.087941
 31
0.0
  0
LINE
  5
105
330
1F
100
AcDbEntity
  8
109
  6
HIDDEN2
 62
     1
100
AcDbLine
 10
-1.717867
 20
74.435411
 30
0.0
 11
-1.967728
 21
75.087941
 31
0.0
  0
LINE
  5
106
330
1F
100
AcDbEntity
  8
109
  6
HIDDEN2
 62
     1
100
AcDbLine
 10
-12.528196
 20
69.957626
 30
0.0
 11
-12.812926
 21
70.595713
 31
0.0
  0
LINE
  5
107
330
1F
100
AcDbEntity
  8
109
  6
HIDDEN2
 62
     1
100
AcDbLine
 10
-14.957627
 20
67.528195
 30
0.0
 11
-15.595714
 21
67.812925
 31
0.0
  0
LINE
  5
108
330
1F
100
AcDbEntity
  8
109
  6
HIDDEN2
 62
     1
100
AcDbLine
 10
-19.276449
 20
58.017421
 30
0.0
 11
-19.927287
 21
58.209459
 31
0.0
  0
LINE
  5
109
330
1F
100
AcDbEntity
  8
109
  6
HIDDEN2
 62
     1
100
AcDbLine
 10
19.511185
 20
13.982576
 30
0.0
 11
19.46616
 21
13.983974
 31
0.0
  0
LINE
  5
10A
330
1F
100
AcDbEntity
  8
109
  6
HIDDEN2
 62
     1
100
AcDbLine
 10
19.511185
 20
18.017421
 30
0.0
 11
19.46616
 21
18.016023
 31
0.0
  0
LINE
  5
10B
330
1F
100
AcDbEntity
  8
109
  6
HIDDEN2
 62
     1
100
AcDbLine
 10
19.46616
 20
18.016023
 30
0.0
 11
19.46616
 21
21.983974
 31
0.0
  0
LINE
  5
10C
330
1F
100
AcDbEntity
  8
109
  6
HIDDEN2
 62
     1
100
AcDbLine
 10
19.511185
 20
21.982576
 30
0.0
 11
19.46616
 21
21.983974
 31
0.0
  0
LINE
  5
10D
330
1F
100
AcDbEntity
  8
109
  6
HIDDEN2
 62
     1
100
AcDbLine
 10
19.511185
 20
26.017421
 30
0.0
 11
19.46616
 21
26.016023
 31
0.0
  0
LINE
  5
10E
330
1F
100
AcDbEntity
  8
109
  6
HIDDEN2
 62
     1
100
AcDbLine
 10
19.46616
 20
26.016023
 30
0.0
 11
19.46616
 21
29.983974
 31
0.0
  0
LINE
  5
10F
330
1F
100
AcDbEntity
  8
109
  6
HIDDEN2
 62
     1
100
AcDbLine
 10
19.511185
 20
29.982576
 30
0.0
 11
19.46616
 21
29.983974
 31
0.0
  0
LINE
  5
110
330
1F
100
AcDbEntity
  8
109
  6
HIDDEN2
 62
     1
100
AcDbLine
 10
19.511185
 20
34.017421
 30
0.0
 11
19.46616
 21
34.016023
 31
0.0
  0
LINE
  5
111
330
1F
100
AcDbEntity
  8
109
  6
HIDDEN2
 62
     1
100
AcDbLine
 10
19.46616
 20
34.016023
 30
0.0
 11
19.46616
 21
37.983974
 31
0.0
  0
LINE
  5
112
330
1F
100
AcDbEntity
  8
109
  6
HIDDEN2
 62
     1
100
AcDbLine
 10
19.511185
 20
37.982576
 30
0.0
 11
19.46616
 21
37.983974
 31
0.0
  0
LINE
  5
113
330
1F
100
AcDbEntity
  8
109
  6
HIDDEN2
 62
     1
100
AcDbLine
 10
19.511185
 20
42.017421
 30
0.0
 11
19.46616
 21
42.016023
 31
0.0
  0
LINE
  5
114
330
1F
100
AcDbEntity
  8
109
  6
HIDDEN2
 62
     1
100
AcDbLine
 10
19.46616
 20
42.016023
 30
0.0
 11
19.46616
 21
45.983974
 31
0.0
  0
LINE
  5
115
330
1F
100
AcDbEntity
  8
109
  6
HIDDEN2
 62
     1
100
AcDbLine
 10
19.511185
 20
45.982576
 30
0.0
 11
19.46616
 21
45.983974
 31
0.0
  0
LINE
  5
116
330
1F
100
AcDbEntity
  8
109
  6
HIDDEN2
 62
     1
100
AcDbLine
 10
19.46616
 20
50.016023
 30
0.0
 11
19.46616
 21
53.983974
 31
0.0
  0
LINE
  5
117
330
1F
100
AcDbEntity
  8
109
  6
HIDDEN2
 62
     1
100
AcDbLine
 10
19.511185
 20
53.982576
 30
0.0
 11
19.46616
 21
53.983974
 31
0.0
  0
LINE
  5
118
330
1F
100
AcDbEntity
  8
109
  6
HIDDEN2
 62
     1
100
AcDbLine
 10
19.511185
 20
-53.982578
 30
0.0
 11
19.46616
 21
-53.983977
 31
0.0
  0
LINE
  5
119
330
1F
100
AcDbEntity
  8
109
  6
HIDDEN2
 62
     1
100
AcDbLine
 10
19.46616
 20
-53.983977
 30
0.0
 11
19.46616
 21
-50.016025
 31
0.0
  0
LINE
  5
11A
330
1F
100
AcDbEntity
  8
109
  6
HIDDEN2
 62
     1
100
AcDbLine
 10
19.511185
 20
-50.017423
 30
0.0
 11
19.46616
 21
-50.016025
 31
0.0
  0
LINE
  5
11B
330
1F
100
AcDbEntity
  8
109
  6
HIDDEN2
 62
     1
100
AcDbLine
 10
19.511185
 20
-45.982579
 30
0.0
 11
19.46616
 21
-45.983977
 31
0.0
  0
LINE
  5
11C
330
1F
100
AcDbEntity
  8
109
  6
HIDDEN2
 62
     1
100
AcDbLine
 10
19.46616
 20
-45.983977
 30
0.0
 11
19.46616
 21
-42.016025
 31
0.0
  0
LINE
  5
11D
330
1F
100
AcDbEntity
  8
109
  6
HIDDEN2
 62
     1
100
AcDbLine
 10
19.511185
 20
-42.017423
 30
0.0
 11
19.46616
 21
-42.016025
 31
0.0
  0
LINE
  5
11E
330
1F
100
AcDbEntity
  8
109
  6
HIDDEN2
 62
     1
100
AcDbLine
 10
19.511185
 20
-37.982578
 30
0.0
 11
19.46616
 21
-37.983977
 31
0.0
  0
LINE
  5
11F
330
1F
100
AcDbEntity
  8
109
  6
HIDDEN2
 62
     1
100
AcDbLine
 10
19.46616
 20
-37.983977
 30
0.0
 11
19.46616
 21
-34.016025
 31
0.0
  0
LINE
  5
120
330
1F
100
AcDbEntity
  8
109
  6
HIDDEN2
 62
     1
100
AcDbLine
 10
19.511185
 20
-34.017423
 30
0.0
 11
19.46616
 21
-34.016025
 31
0.0
  0
LINE
  5
121
330
1F
100
AcDbEntity
  8
109
  6
HIDDEN2
 62
     1
100
AcDbLine
 10
19.511185
 20
-29.982578
 30
0.0
 11
19.46616
 21
-29.983977
 31
0.0
  0
LINE
  5
122
330
1F
100
AcDbEntity
  8
109
  6
HIDDEN2
 62
     1
100
AcDbLine
 10
19.46616
 20
-29.983977
 30
0.0
 11
19.46616
 21
-26.016025
 31
0.0
  0
LINE
  5
123
330
1F
100
AcDbEntity
  8
109
  6
HIDDEN2
 62
     1
100
AcDbLine
 10
19.511185
 20
-26.017423
 30
0.0
 11
19.46616
 21
-26.016025
 31
0.0
  0
LINE
  5
124
330
1F
100
AcDbEntity
  8
109
  6
HIDDEN2
 62
     1
100
AcDbLine
 10
19.511185
 20
-21.982579
 30
0.0
 11
19.46616
 21
-21.983977
 31
0.0
  0
LINE
  5
125
330
1F
100
AcDbEntity
  8
109
  6
HIDDEN2
 62
     1
100
AcDbLine
 10
19.46616
 20
-21.983977
 30
0.0
 11
19.46616
 21
-18.016025
 31
0.0
  0
LINE
  5
126
330
1F
100
AcDbEntity
  8
109
  6
HIDDEN2
 62
     1
100
AcDbLine
 10
19.511185
 20
-18.017424
 30
0.0
 11
19.46616
 21
-18.016025
 31
0.0
  0
LINE
  5
127
330
1F
100
AcDbEntity
  8
109
  6
HIDDEN2
 62
     1
100
AcDbLine
 10
19.511185
 20
-13.982579
 30
0.0
 11
19.46616
 21
-13.983977
 31
0.0
  0
LINE
  5
128
330
1F
100
AcDbEntity
  8
109
  6
HIDDEN2
 62
     1
100
AcDbLine
 10
19.46616
 20
-13.983977
 30
0.0
 11
19.46616
 21
-10.016025
 31
0.0
  0
LINE
  5
129
330
1F
100
AcDbEntity
  8
109
  6
HIDDEN2
 62
     1
100
AcDbLine
 10
19.511185
 20
-10.017424
 30
0.0
 11
19.46616
 21
-10.016025
 31
0.0
  0
LINE
  5
12A
330
1F
100
AcDbEntity
  8
109
  6
HIDDEN2
 62
     1
100
AcDbLine
 10
19.511185
 20
-5.982579
 30
0.0
 11
19.46616
 21
-5.983977
 31
0.0
  0
LINE
  5
12B
330
1F
100
AcDbEntity
  8
109
  6
HIDDEN2
 62
     1
100
AcDbLine
 10
19.46616
 20
-5.983977
 30
0.0
 11
19.46616
 21
-2.016026
 31
0.0
  0
LINE
  5
12C
330
1F
100
AcDbEntity
  8
109
  6
HIDDEN2
 62
     1
100
AcDbLine
 10
19.511185
 20
-2.017424
 30
0.0
 11
19.46616
 21
-2.016026
 31
0.0
  0
LINE
  5
12D
330
1F
100
AcDbEntity
  8
109
  6
HIDDEN2
 62
     1
100
AcDbLine
 10
19.511185
 20
2.017421
 30
0.0
 11
19.46616
 21
2.016023
 31
0.0
  0
LINE
  5
12E
330
1F
100
AcDbEntity
  8
109
  6
HIDDEN2
 62
     1
100
AcDbLine
 10
19.46616
 20
2.016023
 30
0.0
 11
19.46616
 21
5.983974
 31
0.0
  0
LINE
  5
12F
330
1F
100
AcDbEntity
  8
109
  6
HIDDEN2
 62
     1
100
AcDbLine
 10
19.511185
 20
5.982576
 30
0.0
 11
19.46616
 21
5.983974
 31
0.0
  0
LINE
  5
130
330
1F
100
AcDbEntity
  8
109
  6
HIDDEN2
 62
     1
100
AcDbLine
 10
19.511185
 20
10.017421
 30
0.0
 11
19.46616
 21
10.016023
 31
0.0
  0
LINE
  5
131
330
1F
100
AcDbEntity
  8
109
  6
HIDDEN2
 62
     1
100
AcDbLine
 10
19.46616
 20
13.983974
 30
0.0
 11
19.46616
 21
10.016023
 31
0.0
  0
LINE
  5
132
330
1F
100
AcDbEntity
  8
109
  6
HIDDEN2
 62
     1
100
AcDbLine
 10
20.184087
 20
13.790538
 30
0.0
 11
19.511185
 21
13.982576
 31
0.0
  0
LINE
  5
133
330
1F
100
AcDbEntity
  8
109
  6
HIDDEN2
 62
     1
100
AcDbLine
 10
20.184087
 20
18.209459
 30
0.0
 11
19.511185
 21
18.017421
 31
0.0
  0
LINE
  5
134
330
1F
100
AcDbEntity
  8
109
  6
HIDDEN2
 62
     1
100
AcDbLine
 10
20.184087
 20
21.790538
 30
0.0
 11
19.511185
 21
21.982576
 31
0.0
  0
LINE
  5
135
330
1F
100
AcDbEntity
  8
109
  6
HIDDEN2
 62
     1
100
AcDbLine
 10
20.184087
 20
26.209459
 30
0.0
 11
19.511185
 21
26.017421
 31
0.0
  0
LINE
  5
136
330
1F
100
AcDbEntity
  8
109
  6
HIDDEN2
 62
     1
100
AcDbLine
 10
20.184087
 20
29.790538
 30
0.0
 11
19.511185
 21
29.982576
 31
0.0
  0
LINE
  5
137
330
1F
100
AcDbEntity
  8
109
  6
HIDDEN2
 62
     1
100
AcDbLine
 10
20.184087
 20
34.209459
 30
0.0
 11
19.511185
 21
34.017421
 31
0.0
  0
LINE
  5
138
330
1F
100
AcDbEntity
  8
109
  6
HIDDEN2
 62
     1
100
AcDbLine
 10
20.184087
 20
37.790538
 30
0.0
 11
19.511185
 21
37.982576
 31
0.0
  0
LINE
  5
139
330
1F
100
AcDbEntity
  8
109
  6
HIDDEN2
 62
     1
100
AcDbLine
 10
20.184087
 20
42.209459
 30
0.0
 11
19.511185
 21
42.017421
 31
0.0
  0
LINE
  5
13A
330
1F
100
AcDbEntity
  8
109
  6
HIDDEN2
 62
     1
100
AcDbLine
 10
20.184087
 20
45.790538
 30
0.0
 11
19.511185
 21
45.982576
 31
0.0
  0
LINE
  5
13B
330
1F
100
AcDbEntity
  8
109
  6
HIDDEN2
 62
     1
100
AcDbLine
 10
20.184087
 20
50.209459
 30
0.0
 11
19.511185
 21
50.017421
 31
0.0
  0
LINE
  5
13C
330
1F
100
AcDbEntity
  8
109
  6
HIDDEN2
 62
     1
100
AcDbLine
 10
20.184087
 20
53.790538
 30
0.0
 11
19.511185
 21
53.982576
 31
0.0
  0
LINE
  5
13D
330
1F
100
AcDbEntity
  8
109
  6
HIDDEN2
 62
     1
100
AcDbLine
 10
20.184087
 20
-53.79054
 30
0.0
 11
19.511185
 21
-53.982578
 31
0.0
  0
LINE
  5
13E
330
1F
100
AcDbEntity
  8
109
  6
HIDDEN2
 62
     1
100
AcDbLine
 10
20.184087
 20
-50.209462
 30
0.0
 11
19.511185
 21
-50.017423
 31
0.0
  0
LINE
  5
13F
330
1F
100
AcDbEntity
  8
109
  6
HIDDEN2
 62
     1
100
AcDbLine
 10
20.184087
 20
-45.79054
 30
0.0
 11
19.511185
 21
-45.982579
 31
0.0
  0
LINE
  5
140
330
1F
100
AcDbEntity
  8
109
  6
HIDDEN2
 62
     1
100
AcDbLine
 10
20.184087
 20
-42.209462
 30
0.0
 11
19.511185
 21
-42.017423
 31
0.0
  0
LINE
  5
141
330
1F
100
AcDbEntity
  8
109
  6
HIDDEN2
 62
     1
100
AcDbLine
 10
20.184087
 20
-37.79054
 30
0.0
 11
19.511185
 21
-37.982578
 31
0.0
  0
LINE
  5
142
330
1F
100
AcDbEntity
  8
109
  6
HIDDEN2
 62
     1
100
AcDbLine
 10
20.184087
 20
-34.209462
 30
0.0
 11
19.511185
 21
-34.017423
 31
0.0
  0
LINE
  5
143
330
1F
100
AcDbEntity
  8
109
  6
HIDDEN2
 62
     1
100
AcDbLine
 10
20.184087
 20
-29.79054
 30
0.0
 11
19.511185
 21
-29.982578
 31
0.0
  0
LINE
  5
144
330
1F
100
AcDbEntity
  8
109
  6
HIDDEN2
 62
     1
100
AcDbLine
 10
20.184087
 20
-26.209462
 30
0.0
 11
19.511185
 21
-26.017423
 31
0.0
  0
LINE
  5
145
330
1F
100
AcDbEntity
  8
109
  6
HIDDEN2
 62
     1
100
AcDbLine
 10
20.184087
 20
-21.79054
 30
0.0
 11
19.511185
 21
-21.982579
 31
0.0
  0
LINE
  5
146
330
1F
100
AcDbEntity
  8
109
  6
HIDDEN2
 62
     1
100
AcDbLine
 10
20.184087
 20
-18.209462
 30
0.0
 11
19.511185
 21
-18.017424
 31
0.0
  0
LINE
  5
147
330
1F
100
AcDbEntity
  8
109
  6
HIDDEN2
 62
     1
100
AcDbLine
 10
20.184087
 20
-13.79054
 30
0.0
 11
19.511185
 21
-13.982579
 31
0.0
  0
LINE
  5
148
330
1F
100
AcDbEntity
  8
109
  6
HIDDEN2
 62
     1
100
AcDbLine
 10
20.184087
 20
-10.209462
 30
0.0
 11
19.511185
 21
-10.017424
 31
0.0
  0
LINE
  5
149
330
1F
100
AcDbEntity
  8
109
  6
HIDDEN2
 62
     1
100
AcDbLine
 10
20.184087
 20
-5.79054
 30
0.0
 11
19.511185
 21
-5.982579
 31
0.0
  0
LINE
  5
14A
330
1F
100
AcDbEntity
  8
109
  6
HIDDEN2
 62
     1
100
AcDbLine
 10
20.184087
 20
-2.209462
 30
0.0
 11
19.511185
 21
-2.017424
 31
0.0
  0
LINE
  5
14B
330
1F
100
AcDbEntity
  8
109
  6
HIDDEN2
 62
     1
100
AcDbLine
 10
20.184087
 20
2.209459
 30
0.0
 11
19.511185
 21
2.017421
 31
0.0
  0
LINE
  5
14C
330
1F
100
AcDbEntity
  8
109
  6
HIDDEN2
 62
     1
100
AcDbLine
 10
20.184087
 20
5.790538
 30
0.0
 11
19.511185
 21
5.982576
 31
0.0
  0
LINE
  5
14D
330
1F
100
AcDbEntity
  8
109
  6
HIDDEN2
 62
     1
100
AcDbLine
 10
20.184087
 20
10.209459
 30
0.0
 11
19.511185
 21
10.017421
 31
0.0
  0
LINE
  5
14E
330
1F
100
AcDbEntity
  8
109
  6
CONTINUOUS
 62
     7
100
AcDbLine
 10
12.5
 20
51.194953
 30
0.0
 11
12.333444
 21
49.512439
 31
0.0
  0
LINE
  5
14F
330
1F
100
AcDbEntity
  8
109
  6
HIDDEN2
 62
     1
100
AcDbLine
 10
12.612725
 20
52.333671
 30
0.0
 11
12.5
 21
51.194953
 31
0.0
  0
ARC
  5
150
330
1F
100
AcDbEntity
  8
109
  6
HIDDEN2
 62
     1
100
AcDbCircle
 10
0.0
 20
-54.999998
 30
0.0
 40
19.41272467535891
100
AcDbArc
 50
180.0
 51
360.0
  0
ARC
  5
151
330
1F
100
AcDbEntity
  8
109
  6
HIDDEN2
 62
     1
100
AcDbCircle
 10
0.0
 20
-54.999998
 30
0.0
 40
19.5
100
AcDbArc
 50
180.0
 51
360.0
  0
ARC
  5
152
330
1F
100
AcDbEntity
  8
109
  6
HIDDEN2
 62
     1
100
AcDbCircle
 10
0.0
 20
-54.999998
 30
0.0
 40
19.51118450254184
100
AcDbArc
 50
351.103449
 51
360.0
  0
LINE
  5
153
330
1F
100
AcDbEntity
  8
109
  6
HIDDEN2
 62
     1
100
AcDbLine
 10
19.231034
 20
-58.016021
 30
0.0
 11
19.276449
 21
-58.017421
 31
0.0
  0
ARC
  5
154
330
1F
100
AcDbEntity
  8
109
  6
HIDDEN2
 62
     1
100
AcDbCircle
 10
0.001755
 20
-55.000751
 30
0.0
 40
19.46425018084006
100
AcDbArc
 50
320.04554
 51
351.088237
  0
LINE
  5
155
330
1F
100
AcDbEntity
  8
109
  6
HIDDEN2
 62
     1
100
AcDbLine
 10
14.957627
 20
-67.528195
 30
0.0
 11
14.922175
 21
-67.500275
 31
0.0
  0
ARC
  5
156
330
1F
100
AcDbEntity
  8
109
  6
HIDDEN2
 62
     1
100
AcDbCircle
 10
0.0
 20
-54.999998
 30
0.0
 40
19.51118450254184
100
AcDbArc
 50
309.948838
 51
320.051162
  0
LINE
  5
157
330
1F
100
AcDbEntity
  8
109
  6
HIDDEN2
 62
     1
100
AcDbLine
 10
12.528196
 20
-69.957626
 30
0.0
 11
12.500277
 21
-69.922174
 31
0.0
  0
ARC
  5
158
330
1F
100
AcDbEntity
  8
109
  6
HIDDEN2
 62
     1
100
AcDbCircle
 10
0.000586
 20
-55.001414
 30
0.0
 40
19.4646177088219
100
AcDbArc
 50
275.045806
 51
309.954194
  0
LINE
  5
159
330
1F
100
AcDbEntity
  8
109
  6
HIDDEN2
 62
     1
100
AcDbLine
 10
1.717867
 20
-74.435411
 30
0.0
 11
1.712541
 21
-74.3906
 31
0.0
  0
ARC
  5
15A
330
1F
100
AcDbEntity
  8
109
  6
HIDDEN2
 62
     1
100
AcDbCircle
 10
0.0
 20
-54.999998
 30
0.0
 40
19.51118450254184
100
AcDbArc
 50
264.948838
 51
275.051162
  0
LINE
  5
15B
330
1F
100
AcDbEntity
  8
109
  6
HIDDEN2
 62
     1
100
AcDbLine
 10
-1.717867
 20
-74.435411
 30
0.0
 11
-1.712541
 21
-74.3906
 31
0.0
  0
ARC
  5
15C
330
1F
100
AcDbEntity
  8
109
  6
HIDDEN2
 62
     1
100
AcDbCircle
 10
-0.000586
 20
-55.001414
 30
0.0
 40
19.46461770882031
100
AcDbArc
 50
230.045806
 51
264.954194
  0
LINE
  5
15D
330
1F
100
AcDbEntity
  8
109
  6
HIDDEN2
 62
     1
100
AcDbLine
 10
-12.528196
 20
-69.957626
 30
0.0
 11
-12.500277
 21
-69.922174
 31
0.0
  0
ARC
  5
15E
330
1F
100
AcDbEntity
  8
109
  6
HIDDEN2
 62
     1
100
AcDbCircle
 10
0.0
 20
-54.999998
 30
0.0
 40
19.51118450254184
100
AcDbArc
 50
219.948838
 51
230.051162
  0
LINE
  5
15F
330
1F
100
AcDbEntity
  8
109
  6
HIDDEN2
 62
     1
100
AcDbLine
 10
-14.957627
 20
-67.528195
 30
0.0
 11
-14.922175
 21
-67.500275
 31
0.0
  0
ARC
  5
160
330
1F
100
AcDbEntity
  8
109
  6
HIDDEN2
 62
     1
100
AcDbCircle
 10
-0.001755
 20
-55.000751
 30
0.0
 40
19.46425018084004
100
AcDbArc
 50
188.911763
 51
219.95446
  0
LINE
  5
161
330
1F
100
AcDbEntity
  8
109
  6
HIDDEN2
 62
     1
100
AcDbLine
 10
-19.231034
 20
-58.016021
 30
0.0
 11
-19.276449
 21
-58.017421
 31
0.0
  0
ARC
  5
162
330
1F
100
AcDbEntity
  8
109
  6
HIDDEN2
 62
     1
100
AcDbCircle
 10
0.0
 20
-54.999998
 30
0.0
 40
19.51118450254184
100
AcDbArc
 50
180.0
 51
188.896551
  0
ARC
  5
163
330
1F
100
AcDbEntity
  8
109
  6
HIDDEN2
 62
     1
100
AcDbCircle
 10
0.0
 20
-54.999998
 30
0.0
 40
18.95013596300698
100
AcDbArc
 50
180.0
 51
360.0
  0
ARC
  5
164
330
1F
100
AcDbEntity
  8
109
  6
HIDDEN2
 62
     1
100
AcDbCircle
 10
0.0
 20
-54.999998
 30
0.0
 40
20.18408745702233
100
AcDbArc
 50
350.850594
 51
360.0
  0
LINE
  5
165
330
1F
100
AcDbEntity
  8
109
  6
HIDDEN2
 62
     1
100
AcDbLine
 10
19.276449
 20
-58.017421
 30
0.0
 11
19.927287
 21
-58.209459
 31
0.0
  0
LINE
  5
166
330
1F
100
AcDbEntity
  8
109
  6
HIDDEN2
 62
     1
100
AcDbLine
 10
-19.276449
 20
-58.017421
 30
0.0
 11
-19.927287
 21
-58.209459
 31
0.0
  0
ARC
  5
167
330
1F
100
AcDbEntity
  8
109
  6
HIDDEN2
 62
     1
100
AcDbCircle
 10
0.0
 20
-54.999998
 30
0.0
 40
20.18408745702233
100
AcDbArc
 50
180.0
 51
189.149406
  0
LINE
  5
168
330
1F
100
AcDbEntity
  8
109
  6
HIDDEN2
 62
     1
100
AcDbLine
 10
-14.957627
 20
-67.528195
 30
0.0
 11
-15.595714
 21
-67.812925
 31
0.0
  0
LINE
  5
169
330
1F
100
AcDbEntity
  8
109
  6
HIDDEN2
 62
     1
100
AcDbLine
 10
-12.528196
 20
-69.957626
 30
0.0
 11
-12.812926
 21
-70.595713
 31
0.0
  0
ARC
  5
16A
330
1F
100
AcDbEntity
  8
109
  6
HIDDEN2
 62
     1
100
AcDbCircle
 10
0.0
 20
-54.999998
 30
0.0
 40
20.18408745702233
100
AcDbArc
 50
219.405401
 51
230.594599
  0
LINE
  5
16B
330
1F
100
AcDbEntity
  8
109
  6
HIDDEN2
 62
     1
100
AcDbLine
 10
-1.717867
 20
-74.435411
 30
0.0
 11
-1.967728
 21
-75.087941
 31
0.0
  0
LINE
  5
16C
330
1F
100
AcDbEntity
  8
109
  6
HIDDEN2
 62
     1
100
AcDbLine
 10
1.717867
 20
-74.435411
 30
0.0
 11
1.967728
 21
-75.087941
 31
0.0
  0
ARC
  5
16D
330
1F
100
AcDbEntity
  8
109
  6
HIDDEN2
 62
     1
100
AcDbCircle
 10
0.0
 20
-54.999998
 30
0.0
 40
20.18408745702233
100
AcDbArc
 50
264.405401
 51
275.594599
  0
LINE
  5
16E
330
1F
100
AcDbEntity
  8
109
  6
HIDDEN2
 62
     1
100
AcDbLine
 10
12.528196
 20
-69.957626
 30
0.0
 11
12.812926
 21
-70.595713
 31
0.0
  0
LINE
  5
16F
330
1F
100
AcDbEntity
  8
109
  6
HIDDEN2
 62
     1
100
AcDbLine
 10
14.957627
 20
-67.528195
 30
0.0
 11
15.595714
 21
-67.812925
 31
0.0
  0
ARC
  5
170
330
1F
100
AcDbEntity
  8
109
  6
HIDDEN2
 62
     1
100
AcDbCircle
 10
0.0
 20
-54.999998
 30
0.0
 40
20.18408745702233
100
AcDbArc
 50
309.405401
 51
320.594599
  0
LINE
  5
171
330
1F
100
AcDbEntity
  8
109
  6
CONTINUOUS
 62
     7
100
AcDbLine
 10
-12.5
 20
-51.194953
 30
0.0
 11
-12.333444
 21
-49.512439
 31
0.0
  0
LINE
  5
172
330
1F
100
AcDbEntity
  8
109
  6
HIDDEN2
 62
     1
100
AcDbLine
 10
-12.612725
 20
-52.333671
 30
0.0
 11
-12.5
 21
-51.194953
 31
0.0
  0
LINE
  5
173
330
1F
100
AcDbEntity
  8
109
  6
HIDDEN2
 62
     1
100
AcDbLine
 10
-19.511185
 20
-54.999998
 30
0.0
 11
-19.511185
 21
-53.982576
 31
0.0
  0
LINE
  5
174
330
1F
100
AcDbEntity
  8
109
  6
HIDDEN2
 62
     1
100
AcDbLine
 10
-19.511185
 20
-53.982576
 30
0.0
 11
-19.46616
 21
-53.983974
 31
0.0
  0
LINE
  5
175
330
1F
100
AcDbEntity
  8
109
  6
HIDDEN2
 62
     1
100
AcDbLine
 10
-19.46616
 20
-50.016023
 30
0.0
 11
-19.46616
 21
-53.983974
 31
0.0
  0
LINE
  5
176
330
1F
100
AcDbEntity
  8
109
  6
HIDDEN2
 62
     1
100
AcDbLine
 10
-19.511185
 20
-50.017421
 30
0.0
 11
-19.46616
 21
-50.016023
 31
0.0
  0
LINE
  5
177
330
1F
100
AcDbEntity
  8
109
  6
HIDDEN2
 62
     1
100
AcDbLine
 10
-19.511185
 20
-50.017421
 30
0.0
 11
-19.511185
 21
-45.982576
 31
0.0
  0
LINE
  5
178
330
1F
100
AcDbEntity
  8
109
  6
HIDDEN2
 62
     1
100
AcDbLine
 10
-19.511185
 20
-45.982576
 30
0.0
 11
-19.46616
 21
-45.983974
 31
0.0
  0
LINE
  5
179
330
1F
100
AcDbEntity
  8
109
  6
HIDDEN2
 62
     1
100
AcDbLine
 10
-19.46616
 20
-42.016023
 30
0.0
 11
-19.46616
 21
-45.983974
 31
0.0
  0
LINE
  5
17A
330
1F
100
AcDbEntity
  8
109
  6
HIDDEN2
 62
     1
100
AcDbLine
 10
-19.511185
 20
-42.017421
 30
0.0
 11
-19.46616
 21
-42.016023
 31
0.0
  0
LINE
  5
17B
330
1F
100
AcDbEntity
  8
109
  6
HIDDEN2
 62
     1
100
AcDbLine
 10
-19.511185
 20
-42.017421
 30
0.0
 11
-19.511185
 21
-37.982576
 31
0.0
  0
LINE
  5
17C
330
1F
100
AcDbEntity
  8
109
  6
HIDDEN2
 62
     1
100
AcDbLine
 10
-19.511185
 20
-37.982576
 30
0.0
 11
-19.46616
 21
-37.983974
 31
0.0
  0
LINE
  5
17D
330
1F
100
AcDbEntity
  8
109
  6
HIDDEN2
 62
     1
100
AcDbLine
 10
-19.46616
 20
-34.016023
 30
0.0
 11
-19.46616
 21
-37.983974
 31
0.0
  0
LINE
  5
17E
330
1F
100
AcDbEntity
  8
109
  6
HIDDEN2
 62
     1
100
AcDbLine
 10
-19.511185
 20
-34.017421
 30
0.0
 11
-19.46616
 21
-34.016023
 31
0.0
  0
LINE
  5
17F
330
1F
100
AcDbEntity
  8
109
  6
HIDDEN2
 62
     1
100
AcDbLine
 10
-19.511185
 20
-34.017421
 30
0.0
 11
-19.511185
 21
-29.982576
 31
0.0
  0
LINE
  5
180
330
1F
100
AcDbEntity
  8
109
  6
HIDDEN2
 62
     1
100
AcDbLine
 10
-19.511185
 20
-29.982576
 30
0.0
 11
-19.46616
 21
-29.983974
 31
0.0
  0
LINE
  5
181
330
1F
100
AcDbEntity
  8
109
  6
HIDDEN2
 62
     1
100
AcDbLine
 10
-19.46616
 20
-26.016023
 30
0.0
 11
-19.46616
 21
-29.983974
 31
0.0
  0
LINE
  5
182
330
1F
100
AcDbEntity
  8
109
  6
HIDDEN2
 62
     1
100
AcDbLine
 10
-19.511185
 20
-26.017421
 30
0.0
 11
-19.46616
 21
-26.016023
 31
0.0
  0
LINE
  5
183
330
1F
100
AcDbEntity
  8
109
  6
HIDDEN2
 62
     1
100
AcDbLine
 10
-19.511185
 20
-26.017421
 30
0.0
 11
-19.511185
 21
-21.982576
 31
0.0
  0
LINE
  5
184
330
1F
100
AcDbEntity
  8
109
  6
HIDDEN2
 62
     1
100
AcDbLine
 10
-19.511185
 20
-21.982576
 30
0.0
 11
-19.46616
 21
-21.983974
 31
0.0
  0
LINE
  5
185
330
1F
100
AcDbEntity
  8
109
  6
HIDDEN2
 62
     1
100
AcDbLine
 10
-19.46616
 20
-18.016023
 30
0.0
 11
-19.46616
 21
-21.983974
 31
0.0
  0
LINE
  5
186
330
1F
100
AcDbEntity
  8
109
  6
HIDDEN2
 62
     1
100
AcDbLine
 10
-19.511185
 20
-18.017421
 30
0.0
 11
-19.46616
 21
-18.016023
 31
0.0
  0
LINE
  5
187
330
1F
100
AcDbEntity
  8
109
  6
HIDDEN2
 62
     1
100
AcDbLine
 10
-19.511185
 20
-18.017421
 30
0.0
 11
-19.511185
 21
-13.982576
 31
0.0
  0
LINE
  5
188
330
1F
100
AcDbEntity
  8
109
  6
HIDDEN2
 62
     1
100
AcDbLine
 10
-19.511185
 20
-13.982576
 30
0.0
 11
-19.46616
 21
-13.983974
 31
0.0
  0
LINE
  5
189
330
1F
100
AcDbEntity
  8
109
  6
HIDDEN2
 62
     1
100
AcDbLine
 10
-19.46616
 20
-13.983974
 30
0.0
 11
-19.46616
 21
-10.016023
 31
0.0
  0
LINE
  5
18A
330
1F
100
AcDbEntity
  8
109
  6
HIDDEN2
 62
     1
100
AcDbLine
 10
-19.511185
 20
-10.017421
 30
0.0
 11
-19.46616
 21
-10.016023
 31
0.0
  0
LINE
  5
18B
330
1F
100
AcDbEntity
  8
109
  6
HIDDEN2
 62
     1
100
AcDbLine
 10
-19.511185
 20
-10.017421
 30
0.0
 11
-19.511185
 21
-5.982576
 31
0.0
  0
LINE
  5
18C
330
1F
100
AcDbEntity
  8
109
  6
HIDDEN2
 62
     1
100
AcDbLine
 10
-19.511185
 20
-5.982576
 30
0.0
 11
-19.46616
 21
-5.983974
 31
0.0
  0
LINE
  5
18D
330
1F
100
AcDbEntity
  8
109
  6
HIDDEN2
 62
     1
100
AcDbLine
 10
-19.46616
 20
-2.016023
 30
0.0
 11
-19.46616
 21
-5.983974
 31
0.0
  0
LINE
  5
18E
330
1F
100
AcDbEntity
  8
109
  6
HIDDEN2
 62
     1
100
AcDbLine
 10
-19.511185
 20
-2.017421
 30
0.0
 11
-19.46616
 21
-2.016023
 31
0.0
  0
LINE
  5
18F
330
1F
100
AcDbEntity
  8
109
  6
HIDDEN2
 62
     1
100
AcDbLine
 10
-19.511185
 20
-2.017421
 30
0.0
 11
-19.511185
 21
2.017424
 31
0.0
  0
LINE
  5
190
330
1F
100
AcDbEntity
  8
109
  6
HIDDEN2
 62
     1
100
AcDbLine
 10
-19.511185
 20
2.017424
 30
0.0
 11
-19.46616
 21
2.016026
 31
0.0
  0
LINE
  5
191
330
1F
100
AcDbEntity
  8
109
  6
HIDDEN2
 62
     1
100
AcDbLine
 10
-19.46616
 20
5.983977
 30
0.0
 11
-19.46616
 21
2.016026
 31
0.0
  0
LINE
  5
192
330
1F
100
AcDbEntity
  8
109
  6
HIDDEN2
 62
     1
100
AcDbLine
 10
-19.511185
 20
5.982579
 30
0.0
 11
-19.46616
 21
5.983977
 31
0.0
  0
LINE
  5
193
330
1F
100
AcDbEntity
  8
109
  6
HIDDEN2
 62
     1
100
AcDbLine
 10
-19.511185
 20
5.982579
 30
0.0
 11
-19.511185
 21
10.017424
 31
0.0
  0
LINE
  5
194
330
1F
100
AcDbEntity
  8
109
  6
HIDDEN2
 62
     1
100
AcDbLine
 10
-19.511185
 20
10.017424
 30
0.0
 11
-19.46616
 21
10.016025
 31
0.0
  0
LINE
  5
195
330
1F
100
AcDbEntity
  8
109
  6
HIDDEN2
 62
     1
100
AcDbLine
 10
-19.46616
 20
13.983977
 30
0.0
 11
-19.46616
 21
10.016025
 31
0.0
  0
LINE
  5
196
330
1F
100
AcDbEntity
  8
109
  6
HIDDEN2
 62
     1
100
AcDbLine
 10
-19.511185
 20
13.982579
 30
0.0
 11
-19.46616
 21
13.983977
 31
0.0
  0
LINE
  5
197
330
1F
100
AcDbEntity
  8
109
  6
HIDDEN2
 62
     1
100
AcDbLine
 10
-19.511185
 20
13.982579
 30
0.0
 11
-19.511185
 21
18.017424
 31
0.0
  0
LINE
  5
198
330
1F
100
AcDbEntity
  8
109
  6
HIDDEN2
 62
     1
100
AcDbLine
 10
-19.511185
 20
18.017424
 30
0.0
 11
-19.46616
 21
18.016025
 31
0.0
  0
LINE
  5
199
330
1F
100
AcDbEntity
  8
109
  6
HIDDEN2
 62
     1
100
AcDbLine
 10
-19.46616
 20
21.983977
 30
0.0
 11
-19.46616
 21
18.016025
 31
0.0
  0
LINE
  5
19A
330
1F
100
AcDbEntity
  8
109
  6
HIDDEN2
 62
     1
100
AcDbLine
 10
-19.511185
 20
21.982579
 30
0.0
 11
-19.46616
 21
21.983977
 31
0.0
  0
LINE
  5
19B
330
1F
100
AcDbEntity
  8
109
  6
HIDDEN2
 62
     1
100
AcDbLine
 10
-19.511185
 20
21.982579
 30
0.0
 11
-19.511185
 21
26.017423
 31
0.0
  0
LINE
  5
19C
330
1F
100
AcDbEntity
  8
109
  6
HIDDEN2
 62
     1
100
AcDbLine
 10
-19.511185
 20
26.017423
 30
0.0
 11
-19.46616
 21
26.016025
 31
0.0
  0
LINE
  5
19D
330
1F
100
AcDbEntity
  8
109
  6
HIDDEN2
 62
     1
100
AcDbLine
 10
-19.46616
 20
29.983977
 30
0.0
 11
-19.46616
 21
26.016025
 31
0.0
  0
LINE
  5
19E
330
1F
100
AcDbEntity
  8
109
  6
HIDDEN2
 62
     1
100
AcDbLine
 10
-19.511185
 20
29.982578
 30
0.0
 11
-19.46616
 21
29.983977
 31
0.0
  0
LINE
  5
19F
330
1F
100
AcDbEntity
  8
109
  6
HIDDEN2
 62
     1
100
AcDbLine
 10
-19.511185
 20
29.982578
 30
0.0
 11
-19.511185
 21
34.017423
 31
0.0
  0
LINE
  5
1A0
330
1F
100
AcDbEntity
  8
109
  6
HIDDEN2
 62
     1
100
AcDbLine
 10
-19.511185
 20
34.017423
 30
0.0
 11
-19.46616
 21
34.016025
 31
0.0
  0
LINE
  5
1A1
330
1F
100
AcDbEntity
  8
109
  6
HIDDEN2
 62
     1
100
AcDbLine
 10
-19.46616
 20
37.983977
 30
0.0
 11
-19.46616
 21
34.016025
 31
0.0
  0
LINE
  5
1A2
330
1F
100
AcDbEntity
  8
109
  6
HIDDEN2
 62
     1
100
AcDbLine
 10
-19.511185
 20
37.982578
 30
0.0
 11
-19.46616
 21
37.983977
 31
0.0
  0
LINE
  5
1A3
330
1F
100
AcDbEntity
  8
109
  6
HIDDEN2
 62
     1
100
AcDbLine
 10
-19.511185
 20
37.982578
 30
0.0
 11
-19.511185
 21
42.017423
 31
0.0
  0
LINE
  5
1A4
330
1F
100
AcDbEntity
  8
109
  6
HIDDEN2
 62
     1
100
AcDbLine
 10
-19.511185
 20
42.017423
 30
0.0
 11
-19.46616
 21
42.016025
 31
0.0
  0
LINE
  5
1A5
330
1F
100
AcDbEntity
  8
109
  6
HIDDEN2
 62
     1
100
AcDbLine
 10
-19.46616
 20
45.983977
 30
0.0
 11
-19.46616
 21
42.016025
 31
0.0
  0
LINE
  5
1A6
330
1F
100
AcDbEntity
  8
109
  6
HIDDEN2
 62
     1
100
AcDbLine
 10
-19.511185
 20
45.982579
 30
0.0
 11
-19.46616
 21
45.983977
 31
0.0
  0
LINE
  5
1A7
330
1F
100
AcDbEntity
  8
109
  6
HIDDEN2
 62
     1
100
AcDbLine
 10
-19.511185
 20
45.982579
 30
0.0
 11
-19.511185
 21
50.017423
 31
0.0
  0
LINE
  5
1A8
330
1F
100
AcDbEntity
  8
109
  6
HIDDEN2
 62
     1
100
AcDbLine
 10
-19.511185
 20
50.017423
 30
0.0
 11
-19.46616
 21
50.016025
 31
0.0
  0
LINE
  5
1A9
330
1F
100
AcDbEntity
  8
109
  6
HIDDEN2
 62
     1
100
AcDbLine
 10
-19.46616
 20
53.983977
 30
0.0
 11
-19.46616
 21
50.016025
 31
0.0
  0
LINE
  5
1AA
330
1F
100
AcDbEntity
  8
109
  6
HIDDEN2
 62
     1
100
AcDbLine
 10
-19.511185
 20
53.982578
 30
0.0
 11
-19.46616
 21
53.983977
 31
0.0
  0
LINE
  5
1AB
330
1F
100
AcDbEntity
  8
109
  6
HIDDEN2
 62
     1
100
AcDbLine
 10
-19.511185
 20
53.982578
 30
0.0
 11
-19.511185
 21
55.000002
 31
0.0
  0
LINE
  5
1AC
330
1F
100
AcDbEntity
  8
109
  6
HIDDEN2
 62
     1
100
AcDbLine
 10
-18.950136
 20
-54.999998
 30
0.0
 11
-18.950136
 21
55.000002
 31
0.0
  0
LINE
  5
1AD
330
1F
100
AcDbEntity
  8
109
  6
HIDDEN2
 62
     1
100
AcDbLine
 10
-20.184087
 20
-54.999998
 30
0.0
 11
-20.184087
 21
-53.790538
 31
0.0
  0
LINE
  5
1AE
330
1F
100
AcDbEntity
  8
109
  6
HIDDEN2
 62
     1
100
AcDbLine
 10
-20.184087
 20
-53.790538
 30
0.0
 11
-19.511185
 21
-53.982576
 31
0.0
  0
LINE
  5
1AF
330
1F
100
AcDbEntity
  8
109
  6
HIDDEN2
 62
     1
100
AcDbLine
 10
-20.184087
 20
53.79054
 30
0.0
 11
-19.511185
 21
53.982578
 31
0.0
  0
LINE
  5
1B0
330
1F
100
AcDbEntity
  8
109
  6
HIDDEN2
 62
     1
100
AcDbLine
 10
-20.184087
 20
53.79054
 30
0.0
 11
-20.184087
 21
55.000002
 31
0.0
  0
LINE
  5
1B1
330
1F
100
AcDbEntity
  8
109
  6
HIDDEN2
 62
     1
100
AcDbLine
 10
-20.184087
 20
-18.209459
 30
0.0
 11
-20.184087
 21
-13.790538
 31
0.0
  0
LINE
  5
1B2
330
1F
100
AcDbEntity
  8
109
  6
HIDDEN2
 62
     1
100
AcDbLine
 10
-20.184087
 20
-13.790538
 30
0.0
 11
-19.511185
 21
-13.982576
 31
0.0
  0
LINE
  5
1B3
330
1F
100
AcDbEntity
  8
109
  6
HIDDEN2
 62
     1
100
AcDbLine
 10
-20.184087
 20
-18.209459
 30
0.0
 11
-19.511185
 21
-18.017421
 31
0.0
  0
LINE
  5
1B4
330
1F
100
AcDbEntity
  8
109
  6
HIDDEN2
 62
     1
100
AcDbLine
 10
-20.184087
 20
-21.790538
 30
0.0
 11
-19.511185
 21
-21.982576
 31
0.0
  0
LINE
  5
1B5
330
1F
100
AcDbEntity
  8
109
  6
HIDDEN2
 62
     1
100
AcDbLine
 10
-20.184087
 20
-26.209459
 30
0.0
 11
-19.511185
 21
-26.017421
 31
0.0
  0
LINE
  5
1B6
330
1F
100
AcDbEntity
  8
109
  6
HIDDEN2
 62
     1
100
AcDbLine
 10
-20.184087
 20
-26.209459
 30
0.0
 11
-20.184087
 21
-21.790538
 31
0.0
  0
LINE
  5
1B7
330
1F
100
AcDbEntity
  8
109
  6
HIDDEN2
 62
     1
100
AcDbLine
 10
-20.184087
 20
-29.790538
 30
0.0
 11
-19.511185
 21
-29.982576
 31
0.0
  0
LINE
  5
1B8
330
1F
100
AcDbEntity
  8
109
  6
HIDDEN2
 62
     1
100
AcDbLine
 10
-20.184087
 20
-34.209459
 30
0.0
 11
-19.511185
 21
-34.017421
 31
0.0
  0
LINE
  5
1B9
330
1F
100
AcDbEntity
  8
109
  6
HIDDEN2
 62
     1
100
AcDbLine
 10
-20.184087
 20
-34.209459
 30
0.0
 11
-20.184087
 21
-29.790538
 31
0.0
  0
LINE
  5
1BA
330
1F
100
AcDbEntity
  8
109
  6
HIDDEN2
 62
     1
100
AcDbLine
 10
-20.184087
 20
-37.790538
 30
0.0
 11
-19.511185
 21
-37.982576
 31
0.0
  0
LINE
  5
1BB
330
1F
100
AcDbEntity
  8
109
  6
HIDDEN2
 62
     1
100
AcDbLine
 10
-20.184087
 20
-42.209459
 30
0.0
 11
-19.511185
 21
-42.017421
 31
0.0
  0
LINE
  5
1BC
330
1F
100
AcDbEntity
  8
109
  6
HIDDEN2
 62
     1
100
AcDbLine
 10
-20.184087
 20
-42.209459
 30
0.0
 11
-20.184087
 21
-37.790538
 31
0.0
  0
LINE
  5
1BD
330
1F
100
AcDbEntity
  8
109
  6
HIDDEN2
 62
     1
100
AcDbLine
 10
-20.184087
 20
-45.790538
 30
0.0
 11
-19.511185
 21
-45.982576
 31
0.0
  0
LINE
  5
1BE
330
1F
100
AcDbEntity
  8
109
  6
HIDDEN2
 62
     1
100
AcDbLine
 10
-20.184087
 20
-50.209459
 30
0.0
 11
-19.511185
 21
-50.017421
 31
0.0
  0
LINE
  5
1BF
330
1F
100
AcDbEntity
  8
109
  6
HIDDEN2
 62
     1
100
AcDbLine
 10
-20.184087
 20
-50.209459
 30
0.0
 11
-20.184087
 21
-45.790538
 31
0.0
  0
LINE
  5
1C0
330
1F
100
AcDbEntity
  8
109
  6
HIDDEN2
 62
     1
100
AcDbLine
 10
-20.184087
 20
50.209462
 30
0.0
 11
-19.511185
 21
50.017423
 31
0.0
  0
LINE
  5
1C1
330
1F
100
AcDbEntity
  8
109
  6
HIDDEN2
 62
     1
100
AcDbLine
 10
-20.184087
 20
45.79054
 30
0.0
 11
-19.511185
 21
45.982579
 31
0.0
  0
LINE
  5
1C2
330
1F
100
AcDbEntity
  8
109
  6
HIDDEN2
 62
     1
100
AcDbLine
 10
-20.184087
 20
45.79054
 30
0.0
 11
-20.184087
 21
50.209462
 31
0.0
  0
LINE
  5
1C3
330
1F
100
AcDbEntity
  8
109
  6
HIDDEN2
 62
     1
100
AcDbLine
 10
-20.184087
 20
42.209462
 30
0.0
 11
-19.511185
 21
42.017423
 31
0.0
  0
LINE
  5
1C4
330
1F
100
AcDbEntity
  8
109
  6
HIDDEN2
 62
     1
100
AcDbLine
 10
-20.184087
 20
37.79054
 30
0.0
 11
-19.511185
 21
37.982578
 31
0.0
  0
LINE
  5
1C5
330
1F
100
AcDbEntity
  8
109
  6
HIDDEN2
 62
     1
100
AcDbLine
 10
-20.184087
 20
37.79054
 30
0.0
 11
-20.184087
 21
42.209462
 31
0.0
  0
LINE
  5
1C6
330
1F
100
AcDbEntity
  8
109
  6
HIDDEN2
 62
     1
100
AcDbLine
 10
-20.184087
 20
34.209462
 30
0.0
 11
-19.511185
 21
34.017423
 31
0.0
  0
LINE
  5
1C7
330
1F
100
AcDbEntity
  8
109
  6
HIDDEN2
 62
     1
100
AcDbLine
 10
-20.184087
 20
29.79054
 30
0.0
 11
-19.511185
 21
29.982578
 31
0.0
  0
LINE
  5
1C8
330
1F
100
AcDbEntity
  8
109
  6
HIDDEN2
 62
     1
100
AcDbLine
 10
-20.184087
 20
29.79054
 30
0.0
 11
-20.184087
 21
34.209462
 31
0.0
  0
LINE
  5
1C9
330
1F
100
AcDbEntity
  8
109
  6
HIDDEN2
 62
     1
100
AcDbLine
 10
-20.184087
 20
26.209462
 30
0.0
 11
-19.511185
 21
26.017423
 31
0.0
  0
LINE
  5
1CA
330
1F
100
AcDbEntity
  8
109
  6
HIDDEN2
 62
     1
100
AcDbLine
 10
-20.184087
 20
21.79054
 30
0.0
 11
-19.511185
 21
21.982579
 31
0.0
  0
LINE
  5
1CB
330
1F
100
AcDbEntity
  8
109
  6
HIDDEN2
 62
     1
100
AcDbLine
 10
-20.184087
 20
21.79054
 30
0.0
 11
-20.184087
 21
26.209462
 31
0.0
  0
LINE
  5
1CC
330
1F
100
AcDbEntity
  8
109
  6
HIDDEN2
 62
     1
100
AcDbLine
 10
-20.184087
 20
18.209462
 30
0.0
 11
-19.511185
 21
18.017424
 31
0.0
  0
LINE
  5
1CD
330
1F
100
AcDbEntity
  8
109
  6
HIDDEN2
 62
     1
100
AcDbLine
 10
-20.184087
 20
13.79054
 30
0.0
 11
-19.511185
 21
13.982579
 31
0.0
  0
LINE
  5
1CE
330
1F
100
AcDbEntity
  8
109
  6
HIDDEN2
 62
     1
100
AcDbLine
 10
-20.184087
 20
13.79054
 30
0.0
 11
-20.184087
 21
18.209462
 31
0.0
  0
LINE
  5
1CF
330
1F
100
AcDbEntity
  8
109
  6
HIDDEN2
 62
     1
100
AcDbLine
 10
-20.184087
 20
10.209462
 30
0.0
 11
-19.511185
 21
10.017424
 31
0.0
  0
LINE
  5
1D0
330
1F
100
AcDbEntity
  8
109
  6
HIDDEN2
 62
     1
100
AcDbLine
 10
-20.184087
 20
5.79054
 30
0.0
 11
-19.511185
 21
5.982579
 31
0.0
  0
LINE
  5
1D1
330
1F
100
AcDbEntity
  8
109
  6
HIDDEN2
 62
     1
100
AcDbLine
 10
-20.184087
 20
5.79054
 30
0.0
 11
-20.184087
 21
10.209462
 31
0.0
  0
LINE
  5
1D2
330
1F
100
AcDbEntity
  8
109
  6
HIDDEN2
 62
     1
100
AcDbLine
 10
-20.184087
 20
2.209462
 30
0.0
 11
-19.511185
 21
2.017424
 31
0.0
  0
LINE
  5
1D3
330
1F
100
AcDbEntity
  8
109
  6
HIDDEN2
 62
     1
100
AcDbLine
 10
-20.184087
 20
-2.209459
 30
0.0
 11
-19.511185
 21
-2.017421
 31
0.0
  0
LINE
  5
1D4
330
1F
100
AcDbEntity
  8
109
  6
HIDDEN2
 62
     1
100
AcDbLine
 10
-20.184087
 20
-2.209459
 30
0.0
 11
-20.184087
 21
2.209462
 31
0.0
  0
LINE
  5
1D5
330
1F
100
AcDbEntity
  8
109
  6
HIDDEN2
 62
     1
100
AcDbLine
 10
-20.184087
 20
-5.790538
 30
0.0
 11
-19.511185
 21
-5.982576
 31
0.0
  0
LINE
  5
1D6
330
1F
100
AcDbEntity
  8
109
  6
HIDDEN2
 62
     1
100
AcDbLine
 10
-20.184087
 20
-10.209459
 30
0.0
 11
-19.511185
 21
-10.017421
 31
0.0
  0
LINE
  5
1D7
330
1F
100
AcDbEntity
  8
109
  6
HIDDEN2
 62
     1
100
AcDbLine
 10
-20.184087
 20
-10.209459
 30
0.0
 11
-20.184087
 21
-5.790538
 31
0.0
  0
LINE
  5
1D8
330
1F
100
AcDbEntity
  8
109
  6
HIDDEN2
 62
     1
100
AcDbLine
 10
-19.5
 20
-54.999998
 30
0.0
 11
-19.5
 21
55.000002
 31
0.0
  0
LINE
  5
1D9
330
1F
100
AcDbEntity
  8
109
  6
HIDDEN2
 62
     1
100
AcDbLine
 10
-19.412725
 20
-54.999998
 30
0.0
 11
-19.412725
 21
55.000002
 31
0.0
  0
LINE
  5
1DA
330
1F
100
AcDbEntity
  8
109
  6
HIDDEN2
 62
     1
100
AcDbLine
 10
-20.184087
 20
53.79054
 30
0.0
 11
-19.659597
 21
53.79054
 31
0.0
  0
LINE
  5
1DB
330
1F
100
AcDbEntity
  8
109
  6
HIDDEN2
 62
     1
100
AcDbLine
 10
-19.659597
 20
53.79054
 30
0.0
 11
-19.659597
 21
50.209462
 31
0.0
  0
LINE
  5
1DC
330
1F
100
AcDbEntity
  8
109
  6
HIDDEN2
 62
     1
100
AcDbLine
 10
-19.659597
 20
50.209462
 30
0.0
 11
-20.184087
 21
50.209462
 31
0.0
  0
LINE
  5
1DD
330
1F
100
AcDbEntity
  8
109
  6
HIDDEN2
 62
     1
100
AcDbLine
 10
-20.184087
 20
45.79054
 30
0.0
 11
-19.659597
 21
45.79054
 31
0.0
  0
LINE
  5
1DE
330
1F
100
AcDbEntity
  8
109
  6
HIDDEN2
 62
     1
100
AcDbLine
 10
-19.659597
 20
45.79054
 30
0.0
 11
-19.659597
 21
42.209462
 31
0.0
  0
LINE
  5
1DF
330
1F
100
AcDbEntity
  8
109
  6
HIDDEN2
 62
     1
100
AcDbLine
 10
-19.659597
 20
42.209462
 30
0.0
 11
-20.184087
 21
42.209462
 31
0.0
  0
LINE
  5
1E0
330
1F
100
AcDbEntity
  8
109
  6
HIDDEN2
 62
     1
100
AcDbLine
 10
-20.184087
 20
37.79054
 30
0.0
 11
-19.659597
 21
37.79054
 31
0.0
  0
LINE
  5
1E1
330
1F
100
AcDbEntity
  8
109
  6
HIDDEN2
 62
     1
100
AcDbLine
 10
-19.659597
 20
37.79054
 30
0.0
 11
-19.659597
 21
34.209462
 31
0.0
  0
LINE
  5
1E2
330
1F
100
AcDbEntity
  8
109
  6
HIDDEN2
 62
     1
100
AcDbLine
 10
-19.659597
 20
34.209462
 30
0.0
 11
-20.184087
 21
34.209462
 31
0.0
  0
LINE
  5
1E3
330
1F
100
AcDbEntity
  8
109
  6
HIDDEN2
 62
     1
100
AcDbLine
 10
-20.184087
 20
29.79054
 30
0.0
 11
-19.659597
 21
29.79054
 31
0.0
  0
LINE
  5
1E4
330
1F
100
AcDbEntity
  8
109
  6
HIDDEN2
 62
     1
100
AcDbLine
 10
-19.659597
 20
29.79054
 30
0.0
 11
-19.659597
 21
26.209462
 31
0.0
  0
LINE
  5
1E5
330
1F
100
AcDbEntity
  8
109
  6
HIDDEN2
 62
     1
100
AcDbLine
 10
-19.659597
 20
26.209462
 30
0.0
 11
-20.184087
 21
26.209462
 31
0.0
  0
LINE
  5
1E6
330
1F
100
AcDbEntity
  8
109
  6
HIDDEN2
 62
     1
100
AcDbLine
 10
-20.184087
 20
21.79054
 30
0.0
 11
-19.659597
 21
21.79054
 31
0.0
  0
LINE
  5
1E7
330
1F
100
AcDbEntity
  8
109
  6
HIDDEN2
 62
     1
100
AcDbLine
 10
-19.659597
 20
21.79054
 30
0.0
 11
-19.659597
 21
18.209462
 31
0.0
  0
LINE
  5
1E8
330
1F
100
AcDbEntity
  8
109
  6
HIDDEN2
 62
     1
100
AcDbLine
 10
-19.659597
 20
18.209462
 30
0.0
 11
-20.184087
 21
18.209462
 31
0.0
  0
LINE
  5
1E9
330
1F
100
AcDbEntity
  8
109
  6
HIDDEN2
 62
     1
100
AcDbLine
 10
-20.184087
 20
13.79054
 30
0.0
 11
-19.659597
 21
13.79054
 31
0.0
  0
LINE
  5
1EA
330
1F
100
AcDbEntity
  8
109
  6
HIDDEN2
 62
     1
100
AcDbLine
 10
-19.659597
 20
13.79054
 30
0.0
 11
-19.659597
 21
10.209462
 31
0.0
  0
LINE
  5
1EB
330
1F
100
AcDbEntity
  8
109
  6
HIDDEN2
 62
     1
100
AcDbLine
 10
-19.659597
 20
10.209462
 30
0.0
 11
-20.184087
 21
10.209462
 31
0.0
  0
LINE
  5
1EC
330
1F
100
AcDbEntity
  8
109
  6
HIDDEN2
 62
     1
100
AcDbLine
 10
-20.184087
 20
5.79054
 30
0.0
 11
-19.659597
 21
5.79054
 31
0.0
  0
LINE
  5
1ED
330
1F
100
AcDbEntity
  8
109
  6
HIDDEN2
 62
     1
100
AcDbLine
 10
-19.659597
 20
5.79054
 30
0.0
 11
-19.659597
 21
2.209462
 31
0.0
  0
LINE
  5
1EE
330
1F
100
AcDbEntity
  8
109
  6
HIDDEN2
 62
     1
100
AcDbLine
 10
-19.659597
 20
2.209462
 30
0.0
 11
-20.184087
 21
2.209462
 31
0.0
  0
LINE
  5
1EF
330
1F
100
AcDbEntity
  8
109
  6
HIDDEN2
 62
     1
100
AcDbLine
 10
-20.184087
 20
-2.209459
 30
0.0
 11
-19.659597
 21
-2.209459
 31
0.0
  0
LINE
  5
1F0
330
1F
100
AcDbEntity
  8
109
  6
HIDDEN2
 62
     1
100
AcDbLine
 10
-19.659597
 20
-2.209459
 30
0.0
 11
-19.659597
 21
-5.790538
 31
0.0
  0
LINE
  5
1F1
330
1F
100
AcDbEntity
  8
109
  6
HIDDEN2
 62
     1
100
AcDbLine
 10
-19.659597
 20
-5.790538
 30
0.0
 11
-20.184087
 21
-5.790538
 31
0.0
  0
LINE
  5
1F2
330
1F
100
AcDbEntity
  8
109
  6
HIDDEN2
 62
     1
100
AcDbLine
 10
-20.184087
 20
-10.209459
 30
0.0
 11
-19.659597
 21
-10.209459
 31
0.0
  0
LINE
  5
1F3
330
1F
100
AcDbEntity
  8
109
  6
HIDDEN2
 62
     1
100
AcDbLine
 10
-19.659597
 20
-10.209459
 30
0.0
 11
-19.659597
 21
-13.790538
 31
0.0
  0
LINE
  5
1F4
330
1F
100
AcDbEntity
  8
109
  6
HIDDEN2
 62
     1
100
AcDbLine
 10
-19.659597
 20
-13.790538
 30
0.0
 11
-20.184087
 21
-13.790538
 31
0.0
  0
LINE
  5
1F5
330
1F
100
AcDbEntity
  8
109
  6
HIDDEN2
 62
     1
100
AcDbLine
 10
-20.184087
 20
-18.209459
 30
0.0
 11
-19.659597
 21
-18.209459
 31
0.0
  0
LINE
  5
1F6
330
1F
100
AcDbEntity
  8
109
  6
HIDDEN2
 62
     1
100
AcDbLine
 10
-19.659597
 20
-18.209459
 30
0.0
 11
-19.659597
 21
-21.790538
 31
0.0
  0
LINE
  5
1F7
330
1F
100
AcDbEntity
  8
109
  6
HIDDEN2
 62
     1
100
AcDbLine
 10
-19.659597
 20
-21.790538
 30
0.0
 11
-20.184087
 21
-21.790538
 31
0.0
  0
LINE
  5
1F8
330
1F
100
AcDbEntity
  8
109
  6
HIDDEN2
 62
     1
100
AcDbLine
 10
-20.184087
 20
-26.209459
 30
0.0
 11
-19.659597
 21
-26.209459
 31
0.0
  0
LINE
  5
1F9
330
1F
100
AcDbEntity
  8
109
  6
HIDDEN2
 62
     1
100
AcDbLine
 10
-19.659597
 20
-26.209459
 30
0.0
 11
-19.659597
 21
-29.790538
 31
0.0
  0
LINE
  5
1FA
330
1F
100
AcDbEntity
  8
109
  6
HIDDEN2
 62
     1
100
AcDbLine
 10
-19.659597
 20
-29.790538
 30
0.0
 11
-20.184087
 21
-29.790538
 31
0.0
  0
LINE
  5
1FB
330
1F
100
AcDbEntity
  8
109
  6
HIDDEN2
 62
     1
100
AcDbLine
 10
-20.184087
 20
-34.209459
 30
0.0
 11
-19.659597
 21
-34.209459
 31
0.0
  0
LINE
  5
1FC
330
1F
100
AcDbEntity
  8
109
  6
HIDDEN2
 62
     1
100
AcDbLine
 10
-19.659597
 20
-34.209459
 30
0.0
 11
-19.659597
 21
-37.790538
 31
0.0
  0
LINE
  5
1FD
330
1F
100
AcDbEntity
  8
109
  6
HIDDEN2
 62
     1
100
AcDbLine
 10
-19.659597
 20
-37.790538
 30
0.0
 11
-20.184087
 21
-37.790538
 31
0.0
  0
LINE
  5
1FE
330
1F
100
AcDbEntity
  8
109
  6
HIDDEN2
 62
     1
100
AcDbLine
 10
-20.184087
 20
-42.209459
 30
0.0
 11
-19.659597
 21
-42.209459
 31
0.0
  0
LINE
  5
1FF
330
1F
100
AcDbEntity
  8
109
  6
HIDDEN2
 62
     1
100
AcDbLine
 10
-19.659597
 20
-42.209459
 30
0.0
 11
-19.659597
 21
-45.790538
 31
0.0
  0
LINE
  5
200
330
1F
100
AcDbEntity
  8
109
  6
HIDDEN2
 62
     1
100
AcDbLine
 10
-19.659597
 20
-45.790538
 30
0.0
 11
-20.184087
 21
-45.790538
 31
0.0
  0
LINE
  5
201
330
1F
100
AcDbEntity
  8
109
  6
HIDDEN2
 62
     1
100
AcDbLine
 10
-20.184087
 20
-50.209459
 30
0.0
 11
-19.659597
 21
-50.209459
 31
0.0
  0
LINE
  5
202
330
1F
100
AcDbEntity
  8
109
  6
HIDDEN2
 62
     1
100
AcDbLine
 10
-19.659597
 20
-50.209459
 30
0.0
 11
-19.659597
 21
-53.790538
 31
0.0
  0
LINE
  5
203
330
1F
100
AcDbEntity
  8
109
  6
HIDDEN2
 62
     1
100
AcDbLine
 10
-19.659597
 20
-53.790538
 30
0.0
 11
-20.184087
 21
-53.790538
 31
0.0
  0
LINE
  5
204
330
1F
100
AcDbEntity
  8
109
  6
HIDDEN2
 62
     1
100
AcDbLine
 10
-19.927287
 20
-58.209459
 30
0.0
 11
-19.395853
 21
-58.209459
 31
0.0
  0
ARC
  5
205
330
1F
100
AcDbEntity
  8
109
  6
HIDDEN2
 62
     1
100
AcDbCircle
 10
0.0
 20
-54.999998
 30
0.0
 40
19.65959674214559
100
AcDbArc
 50
189.395682
 51
219.389538
  0
LINE
  5
206
330
1F
100
AcDbEntity
  8
109
  6
HIDDEN2
 62
     1
100
AcDbLine
 10
-15.193909
 20
-67.47577
 30
0.0
 11
-15.595714
 21
-67.812925
 31
0.0
  0
LINE
  5
207
330
1F
100
AcDbEntity
  8
109
  6
HIDDEN2
 62
     1
100
AcDbLine
 10
-12.812926
 20
-70.595713
 30
0.0
 11
-12.475772
 21
-70.193907
 31
0.0
  0
ARC
  5
208
330
1F
100
AcDbEntity
  8
109
  6
HIDDEN2
 62
     1
100
AcDbCircle
 10
0.0
 20
-54.999998
 30
0.0
 40
19.65959674214559
100
AcDbArc
 50
230.610462
 51
264.389538
  0
LINE
  5
209
330
1F
100
AcDbEntity
  8
109
  6
HIDDEN2
 62
     1
100
AcDbLine
 10
-1.922013
 20
-74.565417
 30
0.0
 11
-1.967728
 21
-75.087941
 31
0.0
  0
LINE
  5
20A
330
1F
100
AcDbEntity
  8
109
  6
HIDDEN2
 62
     1
100
AcDbLine
 10
1.967728
 20
-75.087941
 30
0.0
 11
1.922013
 21
-74.565417
 31
0.0
  0
ARC
  5
20B
330
1F
100
AcDbEntity
  8
109
  6
HIDDEN2
 62
     1
100
AcDbCircle
 10
0.0
 20
-54.999998
 30
0.0
 40
19.65959674214559
100
AcDbArc
 50
275.610462
 51
309.389538
  0
LINE
  5
20C
330
1F
100
AcDbEntity
  8
109
  6
HIDDEN2
 62
     1
100
AcDbLine
 10
12.475772
 20
-70.193907
 30
0.0
 11
12.812926
 21
-70.595713
 31
0.0
  0
LINE
  5
20D
330
1F
100
AcDbEntity
  8
109
  6
HIDDEN2
 62
     1
100
AcDbLine
 10
15.595714
 20
-67.812925
 30
0.0
 11
15.193909
 21
-67.47577
 31
0.0
  0
ARC
  5
20E
330
1F
100
AcDbEntity
  8
109
  6
HIDDEN2
 62
     1
100
AcDbCircle
 10
0.0
 20
-54.999998
 30
0.0
 40
19.65959674214558
100
AcDbArc
 50
320.610462
 51
350.604318
  0
LINE
  5
20F
330
1F
100
AcDbEntity
  8
109
  6
HIDDEN2
 62
     1
100
AcDbLine
 10
19.395853
 20
-58.209459
 30
0.0
 11
19.927287
 21
-58.209459
 31
0.0
  0
LINE
  5
210
330
1F
100
AcDbEntity
  8
109
  6
HIDDEN2
 62
     1
100
AcDbLine
 10
-19.46616
 20
-13.983974
 30
0.0
 11
-19.659597
 21
-13.790538
 31
0.0
  0
LINE
  5
211
330
1F
100
AcDbEntity
  8
109
  6
HIDDEN2
 62
     1
100
AcDbLine
 10
-19.46616
 20
-18.016023
 30
0.0
 11
-19.659597
 21
-18.209459
 31
0.0
  0
LINE
  5
212
330
1F
100
AcDbEntity
  8
109
  6
HIDDEN2
 62
     1
100
AcDbLine
 10
-19.46616
 20
-21.983974
 30
0.0
 11
-19.659597
 21
-21.790538
 31
0.0
  0
LINE
  5
213
330
1F
100
AcDbEntity
  8
109
  6
HIDDEN2
 62
     1
100
AcDbLine
 10
-19.46616
 20
-26.016023
 30
0.0
 11
-19.659597
 21
-26.209459
 31
0.0
  0
LINE
  5
214
330
1F
100
AcDbEntity
  8
109
  6
HIDDEN2
 62
     1
100
AcDbLine
 10
-19.46616
 20
-29.983974
 30
0.0
 11
-19.659597
 21
-29.790538
 31
0.0
  0
LINE
  5
215
330
1F
100
AcDbEntity
  8
109
  6
HIDDEN2
 62
     1
100
AcDbLine
 10
-19.46616
 20
-34.016023
 30
0.0
 11
-19.659597
 21
-34.209459
 31
0.0
  0
LINE
  5
216
330
1F
100
AcDbEntity
  8
109
  6
HIDDEN2
 62
     1
100
AcDbLine
 10
-19.46616
 20
-37.983974
 30
0.0
 11
-19.659597
 21
-37.790538
 31
0.0
  0
LINE
  5
217
330
1F
100
AcDbEntity
  8
109
  6
HIDDEN2
 62
     1
100
AcDbLine
 10
-19.46616
 20
-42.016023
 30
0.0
 11
-19.659597
 21
-42.209459
 31
0.0
  0
LINE
  5
218
330
1F
100
AcDbEntity
  8
109
  6
HIDDEN2
 62
     1
100
AcDbLine
 10
-19.46616
 20
-45.983974
 30
0.0
 11
-19.659597
 21
-45.790538
 31
0.0
  0
LINE
  5
219
330
1F
100
AcDbEntity
  8
109
  6
HIDDEN2
 62
     1
100
AcDbLine
 10
-19.46616
 20
-50.016023
 30
0.0
 11
-19.659597
 21
-50.209459
 31
0.0
  0
LINE
  5
21A
330
1F
100
AcDbEntity
  8
109
  6
HIDDEN2
 62
     1
100
AcDbLine
 10
-19.46616
 20
-53.983974
 30
0.0
 11
-19.659597
 21
-53.790538
 31
0.0
  0
LINE
  5
21B
330
1F
100
AcDbEntity
  8
109
  6
HIDDEN2
 62
     1
100
AcDbLine
 10
-19.231034
 20
-58.016021
 30
0.0
 11
-19.395853
 21
-58.209459
 31
0.0
  0
LINE
  5
21C
330
1F
100
AcDbEntity
  8
109
  6
HIDDEN2
 62
     1
100
AcDbLine
 10
-14.922175
 20
-67.500275
 30
0.0
 11
-15.193909
 21
-67.47577
 31
0.0
  0
LINE
  5
21D
330
1F
100
AcDbEntity
  8
109
  6
HIDDEN2
 62
     1
100
AcDbLine
 10
-12.500277
 20
-69.922174
 30
0.0
 11
-12.475772
 21
-70.193907
 31
0.0
  0
LINE
  5
21E
330
1F
100
AcDbEntity
  8
109
  6
HIDDEN2
 62
     1
100
AcDbLine
 10
-1.712541
 20
-74.3906
 30
0.0
 11
-1.922013
 21
-74.565417
 31
0.0
  0
LINE
  5
21F
330
1F
100
AcDbEntity
  8
109
  6
HIDDEN2
 62
     1
100
AcDbLine
 10
1.712541
 20
-74.3906
 30
0.0
 11
1.922013
 21
-74.565417
 31
0.0
  0
LINE
  5
220
330
1F
100
AcDbEntity
  8
109
  6
HIDDEN2
 62
     1
100
AcDbLine
 10
12.500277
 20
-69.922174
 30
0.0
 11
12.475772
 21
-70.193907
 31
0.0
  0
LINE
  5
221
330
1F
100
AcDbEntity
  8
109
  6
HIDDEN2
 62
     1
100
AcDbLine
 10
14.922175
 20
-67.500275
 30
0.0
 11
15.193909
 21
-67.47577
 31
0.0
  0
LINE
  5
222
330
1F
100
AcDbEntity
  8
109
  6
HIDDEN2
 62
     1
100
AcDbLine
 10
19.231034
 20
-58.016021
 30
0.0
 11
19.395853
 21
-58.209459
 31
0.0
  0
LINE
  5
223
330
1F
100
AcDbEntity
  8
109
  6
HIDDEN2
 62
     1
100
AcDbLine
 10
-19.46616
 20
53.983977
 30
0.0
 11
-19.659597
 21
53.79054
 31
0.0
  0
LINE
  5
224
330
1F
100
AcDbEntity
  8
109
  6
HIDDEN2
 62
     1
100
AcDbLine
 10
-19.46616
 20
50.016025
 30
0.0
 11
-19.659597
 21
50.209462
 31
0.0
  0
LINE
  5
225
330
1F
100
AcDbEntity
  8
109
  6
HIDDEN2
 62
     1
100
AcDbLine
 10
-19.46616
 20
45.983977
 30
0.0
 11
-19.659597
 21
45.79054
 31
0.0
  0
LINE
  5
226
330
1F
100
AcDbEntity
  8
109
  6
HIDDEN2
 62
     1
100
AcDbLine
 10
-19.46616
 20
42.016025
 30
0.0
 11
-19.659597
 21
42.209462
 31
0.0
  0
LINE
  5
227
330
1F
100
AcDbEntity
  8
109
  6
HIDDEN2
 62
     1
100
AcDbLine
 10
-19.46616
 20
37.983977
 30
0.0
 11
-19.659597
 21
37.79054
 31
0.0
  0
LINE
  5
228
330
1F
100
AcDbEntity
  8
109
  6
HIDDEN2
 62
     1
100
AcDbLine
 10
-19.46616
 20
34.016025
 30
0.0
 11
-19.659597
 21
34.209462
 31
0.0
  0
LINE
  5
229
330
1F
100
AcDbEntity
  8
109
  6
HIDDEN2
 62
     1
100
AcDbLine
 10
-19.46616
 20
29.983977
 30
0.0
 11
-19.659597
 21
29.79054
 31
0.0
  0
LINE
  5
22A
330
1F
100
AcDbEntity
  8
109
  6
HIDDEN2
 62
     1
100
AcDbLine
 10
-19.46616
 20
26.016025
 30
0.0
 11
-19.659597
 21
26.209462
 31
0.0
  0
LINE
  5
22B
330
1F
100
AcDbEntity
  8
109
  6
HIDDEN2
 62
     1
100
AcDbLine
 10
-19.46616
 20
21.983977
 30
0.0
 11
-19.659597
 21
21.79054
 31
0.0
  0
LINE
  5
22C
330
1F
100
AcDbEntity
  8
109
  6
HIDDEN2
 62
     1
100
AcDbLine
 10
-19.46616
 20
18.016025
 30
0.0
 11
-19.659597
 21
18.209462
 31
0.0
  0
LINE
  5
22D
330
1F
100
AcDbEntity
  8
109
  6
HIDDEN2
 62
     1
100
AcDbLine
 10
-19.46616
 20
13.983977
 30
0.0
 11
-19.659597
 21
13.79054
 31
0.0
  0
LINE
  5
22E
330
1F
100
AcDbEntity
  8
109
  6
HIDDEN2
 62
     1
100
AcDbLine
 10
-19.46616
 20
10.016025
 30
0.0
 11
-19.659597
 21
10.209462
 31
0.0
  0
LINE
  5
22F
330
1F
100
AcDbEntity
  8
109
  6
HIDDEN2
 62
     1
100
AcDbLine
 10
-19.46616
 20
5.983977
 30
0.0
 11
-19.659597
 21
5.79054
 31
0.0
  0
LINE
  5
230
330
1F
100
AcDbEntity
  8
109
  6
HIDDEN2
 62
     1
100
AcDbLine
 10
-19.46616
 20
2.016026
 30
0.0
 11
-19.659597
 21
2.209462
 31
0.0
  0
LINE
  5
231
330
1F
100
AcDbEntity
  8
109
  6
HIDDEN2
 62
     1
100
AcDbLine
 10
-19.46616
 20
-2.016023
 30
0.0
 11
-19.659597
 21
-2.209459
 31
0.0
  0
LINE
  5
232
330
1F
100
AcDbEntity
  8
109
  6
HIDDEN2
 62
     1
100
AcDbLine
 10
-19.46616
 20
-5.983974
 30
0.0
 11
-19.659597
 21
-5.790538
 31
0.0
  0
LINE
  5
233
330
1F
100
AcDbEntity
  8
109
  6
HIDDEN2
 62
     1
100
AcDbLine
 10
-19.46616
 20
-10.016023
 30
0.0
 11
-19.659597
 21
-10.209459
 31
0.0
  0
LINE
  5
234
330
1F
100
AcDbEntity
  8
109
  6
HIDDEN2
 62
     1
100
AcDbLine
 10
12.612725
 20
52.333671
 30
0.0
 11
12.612725
 21
-52.333671
 31
0.0
  0
LINE
  5
235
330
1F
100
AcDbEntity
  8
109
  6
HIDDEN2
 62
     1
100
AcDbLine
 10
-12.372375
 20
-52.333671
 30
0.0
 11
-12.612725
 21
-52.333671
 31
0.0
  0
LINE
  5
236
330
1F
100
AcDbEntity
  8
109
  6
CONTINUOUS
 62
     7
100
AcDbLine
 10
12.372375
 20
-52.333671
 30
0.0
 11
-12.372375
 21
-52.333671
 31
0.0
  0
LINE
  5
237
330
1F
100
AcDbEntity
  8
109
  6
HIDDEN2
 62
     1
100
AcDbLine
 10
12.612725
 20
-52.333671
 30
0.0
 11
12.372375
 21
-52.333671
 31
0.0
  0
LINE
  5
238
330
1F
100
AcDbEntity
  8
109
  6
CONTINUOUS
 62
     7
100
AcDbLine
 10
12.333444
 20
49.512439
 30
0.0
 11
12.333444
 21
-49.512439
 31
0.0
  0
LINE
  5
239
330
1F
100
AcDbEntity
  8
109
  6
CONTINUOUS
 62
     7
100
AcDbLine
 10
-12.333444
 20
-49.512439
 30
0.0
 11
12.333444
 21
-49.512439
 31
0.0
  0
LINE
  5
23A
330
1F
100
AcDbEntity
  8
109
  6
HIDDEN2
 62
     1
100
AcDbLine
 10
12.372375
 20
52.333671
 30
0.0
 11
12.612725
 21
52.333671
 31
0.0
  0
LINE
  5
23B
330
1F
100
AcDbEntity
  8
109
  6
CONTINUOUS
 62
     7
100
AcDbLine
 10
-12.372375
 20
52.333671
 30
0.0
 11
12.372375
 21
52.333671
 31
0.0
  0
LINE
  5
23C
330
1F
100
AcDbEntity
  8
109
  6
HIDDEN2
 62
     1
100
AcDbLine
 10
-12.612725
 20
52.333671
 30
0.0
 11
-12.372375
 21
52.333671
 31
0.0
  0
LINE
  5
23D
330
1F
100
AcDbEntity
  8
109
  6
HIDDEN2
 62
     1
100
AcDbLine
 10
-12.612725
 20
-52.333671
 30
0.0
 11
-12.612725
 21
52.333671
 31
0.0
  0
LINE
  5
23E
330
1F
100
AcDbEntity
  8
109
  6
CONTINUOUS
 62
     7
100
AcDbLine
 10
12.333444
 20
49.512439
 30
0.0
 11
-12.333444
 21
49.512439
 31
0.0
  0
LINE
  5
23F
330
1F
100
AcDbEntity
  8
109
  6
CONTINUOUS
 62
     7
100
AcDbLine
 10
-12.333444
 20
-49.512439
 30
0.0
 11
-12.333444
 21
49.512439
 31
0.0
  0
LINE
  5
240
330
1F
100
AcDbEntity
  8
109
  6
CONTINUOUS
 62
     7
100
AcDbLine
 10
12.5
 20
-51.194953
 30
0.0
 11
12.333444
 21
-49.512439
 31
0.0
  0
LINE
  5
241
330
1F
100
AcDbEntity
  8
109
  6
HIDDEN2
 62
     1
100
AcDbLine
 10
12.612725
 20
-52.333671
 30
0.0
 11
12.5
 21
-51.194953
 31
0.0
  0
LINE
  5
242
330
1F
100
AcDbEntity
  8
109
  6
CONTINUOUS
 62
     7
100
AcDbLine
 10
-12.5
 20
51.194953
 30
0.0
 11
-12.333444
 21
49.512439
 31
0.0
  0
LINE
  5
243
330
1F
100
AcDbEntity
  8
109
  6
HIDDEN2
 62
     1
100
AcDbLine
 10
-12.612725
 20
52.333671
 30
0.0
 11
-12.5
 21
51.194953
 31
0.0
  0
LINE
  5
244
330
1F
100
AcDbEntity
  8
109
  6
CONTINUOUS
 62
     7
100
AcDbLine
 10
12.0
 20
-52.5
 30
0.0
 11
-12.0
 21
-52.5
 31
0.0
  0
LINE
  5
245
330
1F
100
AcDbEntity
  8
109
  6
CONTINUOUS
 62
     7
100
AcDbLine
 10
12.5
 20
52.0
 30
0.0
 11
12.5
 21
-52.0
 31
0.0
  0
LINE
  5
246
330
1F
100
AcDbEntity
  8
109
  6
CONTINUOUS
 62
     7
100
AcDbLine
 10
-12.0
 20
52.5
 30
0.0
 11
12.0
 21
52.5
 31
0.0
  0
LINE
  5
247
330
1F
100
AcDbEntity
  8
109
  6
CONTINUOUS
 62
     7
100
AcDbLine
 10
-12.5
 20
-52.0
 30
0.0
 11
-12.5
 21
52.0
 31
0.0
  0
ARC
  5
248
330
1F
100
AcDbEntity
  8
109
  6
CONTINUOUS
 62
     7
100
AcDbCircle
 10
-12.0
 20
-52.0
 30
0.0
 40
0.5
100
AcDbArc
 50
180.0
 51
270.0
  0
ARC
  5
249
330
1F
100
AcDbEntity
  8
109
  6
CONTINUOUS
 62
     7
100
AcDbCircle
 10
12.0
 20
-52.0
 30
0.0
 40
0.5
100
AcDbArc
 50
270.0
 51
360.0
  0
ARC
  5
24A
330
1F
100
AcDbEntity
  8
109
  6
CONTINUOUS
 62
     7
100
AcDbCircle
 10
12.0
 20
52.0
 30
0.0
 40
0.5
100
AcDbArc
 50
360.0
 51
90.0
  0
ARC
  5
24B
330
1F
100
AcDbEntity
  8
109
  6
CONTINUOUS
 62
     7
100
AcDbCircle
 10
-12.0
 20
52.0
 30
0.0
 40
0.5
100
AcDbArc
 50
90.0
 51
180.0
  0
LINE
  5
24C
330
1F
100
AcDbEntity
  8
109
  6
CONTINUOUS
 62
     7
100
AcDbLine
 10
-21.5
 20
-77.5
 30
0.0
 11
21.5
 21
-77.5
 31
0.0
  0
LINE
  5
24D
330
1F
100
AcDbEntity
  8
109
  6
CONTINUOUS
 62
     7
100
AcDbLine
 10
-22.5
 20
76.5
 30
0.0
 11
-22.5
 21
-76.5
 31
0.0
  0
LINE
  5
24E
330
1F
100
AcDbEntity
  8
109
  6
CONTINUOUS
 62
     7
100
AcDbLine
 10
21.5
 20
77.5
 30
0.0
 11
-21.5
 21
77.5
 31
0.0
  0
LINE
  5
24F
330
1F
100
AcDbEntity
  8
109
  6
CONTINUOUS
 62
     7
100
AcDbLine
 10
22.5
 20
-76.5
 30
0.0
 11
22.5
 21
76.5
 31
0.0
  0
ARC
  5
250
330
1F
100
AcDbEntity
  8
109
  6
CONTINUOUS
 62
     7
100
AcDbCircle
 10
-21.5
 20
-76.5
 30
0.0
 40
1.0
100
AcDbArc
 50
180.0
 51
270.0
  0
ARC
  5
251
330
1F
100
AcDbEntity
  8
109
  6
CONTINUOUS
 62
     7
100
AcDbCircle
 10
21.5
 20
-76.5
 30
0.0
 40
1.0
100
AcDbArc
 50
270.0
 51
0.0
  0
ARC
  5
252
330
1F
100
AcDbEntity
  8
109
  6
CONTINUOUS
 62
     7
100
AcDbCircle
 10
-21.5
 20
76.5
 30
0.0
 40
1.0
100
AcDbArc
 50
90.0
 51
180.0
  0
ARC
  5
253
330
1F
100
AcDbEntity
  8
109
  6
CONTINUOUS
 62
     7
100
AcDbCircle
 10
21.5
 20
76.5
 30
0.0
 40
1.0
100
AcDbArc
 50
0.0
 51
90.0
  0
LINE
  5
254
330
1F
100
AcDbEntity
  8
109
  6
CONTINUOUS
 62
     7
100
AcDbLine
 10
19.5
 20
-244.999999
 30
0.0
 11
19.412725
 21
-249.999999
 31
0.0
  0
LINE
  5
255
330
1F
100
AcDbEntity
  8
109
  6
CONTINUOUS
 62
     7
100
AcDbLine
 10
18.950136
 20
-232.999998
 30
0.0
 11
19.511185
 21
-233.998133
 31
0.0
  0
LINE
  5
256
330
1F
100
AcDbEntity
  8
109
  6
CONTINUOUS
 62
     7
100
AcDbLine
 10
19.511185
 20
-233.998133
 30
0.0
 11
20.184087
 21
-244.999999
 31
0.0
  0
LINE
  5
257
330
1F
100
AcDbEntity
  8
109
  6
CONTINUOUS
 62
     7
100
AcDbLine
 10
-19.5
 20
-244.999999
 30
0.0
 11
-19.412725
 21
-249.999999
 31
0.0
  0
LINE
  5
258
330
1F
100
AcDbEntity
  8
109
  6
CONTINUOUS
 62
     7
100
AcDbLine
 10
-18.950136
 20
-232.999998
 30
0.0
 11
-19.511185
 21
-233.998133
 31
0.0
  0
LINE
  5
259
330
1F
100
AcDbEntity
  8
109
  6
CONTINUOUS
 62
     7
100
AcDbLine
 10
-18.950136
 20
-232.999998
 30
0.0
 11
18.950136
 21
-232.999998
 31
0.0
  0
LINE
  5
25A
330
1F
100
AcDbEntity
  8
109
  6
CONTINUOUS
 62
     7
100
AcDbLine
 10
-19.511185
 20
-233.998133
 30
0.0
 11
-20.184087
 21
-244.999999
 31
0.0
  0
LINE
  5
25B
330
1F
100
AcDbEntity
  8
109
  6
CONTINUOUS
 62
     7
100
AcDbLine
 10
19.276449
 20
-233.998133
 30
0.0
 11
19.511185
 21
-233.998133
 31
0.0
  0
LINE
  5
25C
330
1F
100
AcDbEntity
  8
109
  6
CONTINUOUS
 62
     7
100
AcDbLine
 10
12.528196
 20
-233.998133
 30
0.0
 11
14.957627
 21
-233.998133
 31
0.0
  0
LINE
  5
25D
330
1F
100
AcDbEntity
  8
109
  6
CONTINUOUS
 62
     7
100
AcDbLine
 10
-1.717867
 20
-233.998133
 30
0.0
 11
1.717867
 21
-233.998133
 31
0.0
  0
LINE
  5
25E
330
1F
100
AcDbEntity
  8
109
  6
CONTINUOUS
 62
     7
100
AcDbLine
 10
-14.957627
 20
-233.998133
 30
0.0
 11
-12.528196
 21
-233.998133
 31
0.0
  0
LINE
  5
25F
330
1F
100
AcDbEntity
  8
109
  6
CONTINUOUS
 62
     7
100
AcDbLine
 10
-19.511185
 20
-233.998133
 30
0.0
 11
-19.276449
 21
-233.998133
 31
0.0
  0
LINE
  5
260
330
1F
100
AcDbEntity
  8
109
  6
CONTINUOUS
 62
     7
100
AcDbLine
 10
19.231034
 20
-233.917927
 30
0.0
 11
19.395853
 21
-244.999999
 31
0.0
  0
LINE
  5
261
330
1F
100
AcDbEntity
  8
109
  6
CONTINUOUS
 62
     7
100
AcDbLine
 10
12.500277
 20
-233.917889
 30
0.0
 11
12.475772
 21
-245.0
 31
0.0
  0
LINE
  5
262
330
1F
100
AcDbEntity
  8
109
  6
CONTINUOUS
 62
     7
100
AcDbLine
 10
-12.500277
 20
-233.917889
 30
0.0
 11
-12.475772
 21
-245.0
 31
0.0
  0
LINE
  5
263
330
1F
100
AcDbEntity
  8
109
  6
CONTINUOUS
 62
     7
100
AcDbLine
 10
-19.231034
 20
-233.917927
 30
0.0
 11
-19.395853
 21
-244.999999
 31
0.0
  0
LINE
  5
264
330
1F
100
AcDbEntity
  8
109
  6
CONTINUOUS
 62
     7
100
AcDbLine
 10
19.231034
 20
-233.917927
 30
0.0
 11
19.276449
 21
-233.998133
 31
0.0
  0
LINE
  5
265
330
1F
100
AcDbEntity
  8
109
  6
CONTINUOUS
 62
     7
100
AcDbLine
 10
14.957627
 20
-233.998134
 30
0.0
 11
14.922175
 21
-233.917889
 31
0.0
  0
LINE
  5
266
330
1F
100
AcDbEntity
  8
109
  6
CONTINUOUS
 62
     7
100
AcDbLine
 10
12.528196
 20
-233.998134
 30
0.0
 11
12.500277
 21
-233.917889
 31
0.0
  0
LINE
  5
267
330
1F
100
AcDbEntity
  8
109
  6
CONTINUOUS
 62
     7
100
AcDbLine
 10
1.717867
 20
-233.998134
 30
0.0
 11
1.712541
 21
-233.917889
 31
0.0
  0
LINE
  5
268
330
1F
100
AcDbEntity
  8
109
  6
CONTINUOUS
 62
     7
100
AcDbLine
 10
-1.717867
 20
-233.998134
 30
0.0
 11
-1.712541
 21
-233.917889
 31
0.0
  0
LINE
  5
269
330
1F
100
AcDbEntity
  8
109
  6
CONTINUOUS
 62
     7
100
AcDbLine
 10
-12.528196
 20
-233.998134
 30
0.0
 11
-12.500277
 21
-233.917889
 31
0.0
  0
LINE
  5
26A
330
1F
100
AcDbEntity
  8
109
  6
CONTINUOUS
 62
     7
100
AcDbLine
 10
-14.957627
 20
-233.998134
 30
0.0
 11
-14.922175
 21
-233.917889
 31
0.0
  0
LINE
  5
26B
330
1F
100
AcDbEntity
  8
109
  6
CONTINUOUS
 62
     7
100
AcDbLine
 10
-19.231034
 20
-233.917927
 30
0.0
 11
-19.276449
 21
-233.998133
 31
0.0
  0
LINE
  5
26C
330
1F
100
AcDbEntity
  8
109
  6
CONTINUOUS
 62
     7
100
AcDbLine
 10
19.276449
 20
-233.998133
 30
0.0
 11
19.927287
 21
-244.999999
 31
0.0
  0
LINE
  5
26D
330
1F
100
AcDbEntity
  8
109
  6
CONTINUOUS
 62
     7
100
AcDbLine
 10
14.957627
 20
-233.998134
 30
0.0
 11
15.595714
 21
-245.0
 31
0.0
  0
LINE
  5
26E
330
1F
100
AcDbEntity
  8
109
  6
CONTINUOUS
 62
     7
100
AcDbLine
 10
12.528196
 20
-233.998134
 30
0.0
 11
12.812926
 21
-245.0
 31
0.0
  0
LINE
  5
26F
330
1F
100
AcDbEntity
  8
109
  6
CONTINUOUS
 62
     7
100
AcDbLine
 10
1.717867
 20
-233.998134
 30
0.0
 11
1.967728
 21
-245.0
 31
0.0
  0
LINE
  5
270
330
1F
100
AcDbEntity
  8
109
  6
CONTINUOUS
 62
     7
100
AcDbLine
 10
-1.717867
 20
-233.998134
 30
0.0
 11
-1.967728
 21
-245.0
 31
0.0
  0
LINE
  5
271
330
1F
100
AcDbEntity
  8
109
  6
CONTINUOUS
 62
     7
100
AcDbLine
 10
-12.528196
 20
-233.998134
 30
0.0
 11
-12.812926
 21
-245.0
 31
0.0
  0
LINE
  5
272
330
1F
100
AcDbEntity
  8
109
  6
CONTINUOUS
 62
     7
100
AcDbLine
 10
-14.957627
 20
-233.998134
 30
0.0
 11
-15.595714
 21
-245.0
 31
0.0
  0
LINE
  5
273
330
1F
100
AcDbEntity
  8
109
  6
CONTINUOUS
 62
     7
100
AcDbLine
 10
-19.276449
 20
-233.998133
 30
0.0
 11
-19.927287
 21
-244.999999
 31
0.0
  0
LINE
  5
274
330
1F
100
AcDbEntity
  8
109
  6
HIDDEN2
 62
     1
100
AcDbLine
 10
12.612725
 20
-249.999999
 30
0.0
 11
12.333444
 21
-233.999998
 31
0.0
  0
LINE
  5
275
330
1F
100
AcDbEntity
  8
109
  6
HIDDEN2
 62
     1
100
AcDbLine
 10
-12.612725
 20
-249.999999
 30
0.0
 11
-12.333444
 21
-233.999998
 31
0.0
  0
LINE
  5
276
330
1F
100
AcDbEntity
  8
109
  6
HIDDEN2
 62
     1
100
AcDbLine
 10
12.5
 20
-251.999999
 30
0.0
 11
12.5
 21
-249.999999
 31
0.0
  0
LINE
  5
277
330
1F
100
AcDbEntity
  8
109
  6
HIDDEN2
 62
     1
100
AcDbLine
 10
-12.5
 20
-251.999999
 30
0.0
 11
-12.5
 21
-249.999999
 31
0.0
  0
LINE
  5
278
330
1F
100
AcDbEntity
  8
109
  6
CONTINUOUS
 62
     7
100
AcDbLine
 10
-22.5
 20
-252.0
 30
0.0
 11
-22.5
 21
-250.0
 31
0.0
  0
LINE
  5
279
330
1F
100
AcDbEntity
  8
109
  6
CONTINUOUS
 62
     7
100
AcDbLine
 10
22.5
 20
-252.0
 30
0.0
 11
22.5
 21
-250.0
 31
0.0
  0
LINE
  5
27A
330
1F
100
AcDbEntity
  8
109
  6
CONTINUOUS
 62
     7
100
AcDbLine
 10
233.998133
 20
74.435411
 30
0.0
 11
233.998133
 21
74.511183
 31
0.0
  0
LINE
  5
27B
330
1F
100
AcDbEntity
  8
109
  6
CONTINUOUS
 62
     7
100
AcDbLine
 10
233.998133
 20
67.528195
 30
0.0
 11
233.998133
 21
69.957626
 31
0.0
  0
LINE
  5
27C
330
1F
100
AcDbEntity
  8
109
  6
CONTINUOUS
 62
     7
100
AcDbLine
 10
233.917888
 20
74.3906
 30
0.0
 11
244.999999
 21
74.565417
 31
0.0
  0
LINE
  5
27D
330
1F
100
AcDbEntity
  8
109
  6
CONTINUOUS
 62
     7
100
AcDbLine
 10
233.917889
 20
67.500275
 30
0.0
 11
245.0
 21
67.47577
 31
0.0
  0
LINE
  5
27E
330
1F
100
AcDbEntity
  8
109
  6
CONTINUOUS
 62
     7
100
AcDbLine
 10
233.998133
 20
74.435411
 30
0.0
 11
233.917888
 21
74.3906
 31
0.0
  0
LINE
  5
27F
330
1F
100
AcDbEntity
  8
109
  6
CONTINUOUS
 62
     7
100
AcDbLine
 10
233.917888
 20
74.3906
 30
0.0
 11
233.917889
 21
69.922174
 31
0.0
  0
LINE
  5
280
330
1F
100
AcDbEntity
  8
109
  6
CONTINUOUS
 62
     7
100
AcDbLine
 10
233.998134
 20
69.957626
 30
0.0
 11
233.917889
 21
69.922174
 31
0.0
  0
LINE
  5
281
330
1F
100
AcDbEntity
  8
109
  6
CONTINUOUS
 62
     7
100
AcDbLine
 10
233.998134
 20
67.528195
 30
0.0
 11
233.917889
 21
67.500275
 31
0.0
  0
LINE
  5
282
330
1F
100
AcDbEntity
  8
109
  6
CONTINUOUS
 62
     7
100
AcDbLine
 10
233.917927
 20
58.016021
 30
0.0
 11
233.917889
 21
67.500275
 31
0.0
  0
LINE
  5
283
330
1F
100
AcDbEntity
  8
109
  6
CONTINUOUS
 62
     7
100
AcDbLine
 10
233.998133
 20
74.435411
 30
0.0
 11
244.999999
 21
75.087941
 31
0.0
  0
LINE
  5
284
330
1F
100
AcDbEntity
  8
109
  6
CONTINUOUS
 62
     7
100
AcDbLine
 10
233.998134
 20
69.957626
 30
0.0
 11
244.999999
 21
70.595713
 31
0.0
  0
LINE
  5
285
330
1F
100
AcDbEntity
  8
109
  6
CONTINUOUS
 62
     7
100
AcDbLine
 10
233.998134
 20
67.528195
 30
0.0
 11
245.0
 21
67.812925
 31
0.0
  0
LINE
  5
286
330
1F
100
AcDbEntity
  8
109
  6
CONTINUOUS
 62
     7
100
AcDbLine
 10
233.998133
 20
-74.435411
 30
0.0
 11
233.998133
 21
-74.511183
 31
0.0
  0
LINE
  5
287
330
1F
100
AcDbEntity
  8
109
  6
CONTINUOUS
 62
     7
100
AcDbLine
 10
233.998133
 20
-74.435411
 30
0.0
 11
233.917888
 21
-74.3906
 31
0.0
  0
LINE
  5
288
330
1F
100
AcDbEntity
  8
109
  6
CONTINUOUS
 62
     7
100
AcDbLine
 10
233.917888
 20
-74.3906
 30
0.0
 11
233.917889
 21
-69.922174
 31
0.0
  0
LINE
  5
289
330
1F
100
AcDbEntity
  8
109
  6
CONTINUOUS
 62
     7
100
AcDbLine
 10
233.998134
 20
-69.957626
 30
0.0
 11
233.917889
 21
-69.922174
 31
0.0
  0
LINE
  5
28A
330
1F
100
AcDbEntity
  8
109
  6
CONTINUOUS
 62
     7
100
AcDbLine
 10
233.998133
 20
-67.528195
 30
0.0
 11
233.998133
 21
-69.957626
 31
0.0
  0
LINE
  5
28B
330
1F
100
AcDbEntity
  8
109
  6
CONTINUOUS
 62
     7
100
AcDbLine
 10
233.998134
 20
-67.528195
 30
0.0
 11
233.917889
 21
-67.500275
 31
0.0
  0
LINE
  5
28C
330
1F
100
AcDbEntity
  8
109
  6
CONTINUOUS
 62
     7
100
AcDbLine
 10
233.917927
 20
-58.016021
 30
0.0
 11
233.917889
 21
-67.500275
 31
0.0
  0
LINE
  5
28D
330
1F
100
AcDbEntity
  8
109
  6
CONTINUOUS
 62
     7
100
AcDbLine
 10
233.998134
 20
-67.528195
 30
0.0
 11
245.0
 21
-67.812925
 31
0.0
  0
LINE
  5
28E
330
1F
100
AcDbEntity
  8
109
  6
CONTINUOUS
 62
     7
100
AcDbLine
 10
233.998134
 20
-69.957626
 30
0.0
 11
245.0
 21
-70.595713
 31
0.0
  0
LINE
  5
28F
330
1F
100
AcDbEntity
  8
109
  6
CONTINUOUS
 62
     7
100
AcDbLine
 10
233.998133
 20
-74.435411
 30
0.0
 11
244.999999
 21
-75.087941
 31
0.0
  0
LINE
  5
290
330
1F
100
AcDbEntity
  8
109
  6
HIDDEN2
 62
     1
100
AcDbLine
 10
250.0
 20
-52.333671
 30
0.0
 11
233.999999
 21
-49.512439
 31
0.0
  0
LINE
  5
291
330
1F
100
AcDbEntity
  8
109
  6
CONTINUOUS
 62
     7
100
AcDbLine
 10
233.918033
 20
-50.016023
 30
0.0
 11
233.918033
 21
-53.983974
 31
0.0
  0
LINE
  5
292
330
1F
100
AcDbEntity
  8
109
  6
CONTINUOUS
 62
     7
100
AcDbLine
 10
233.998134
 20
-50.017421
 30
0.0
 11
233.998134
 21
-45.982576
 31
0.0
  0
LINE
  5
293
330
1F
100
AcDbEntity
  8
109
  6
CONTINUOUS
 62
     7
100
AcDbLine
 10
233.918033
 20
-42.016023
 30
0.0
 11
233.918033
 21
-45.983974
 31
0.0
  0
LINE
  5
294
330
1F
100
AcDbEntity
  8
109
  6
CONTINUOUS
 62
     7
100
AcDbLine
 10
233.998134
 20
-42.017421
 30
0.0
 11
233.998134
 21
-37.982576
 31
0.0
  0
LINE
  5
295
330
1F
100
AcDbEntity
  8
109
  6
CONTINUOUS
 62
     7
100
AcDbLine
 10
233.918033
 20
-34.016023
 30
0.0
 11
233.918033
 21
-37.983974
 31
0.0
  0
LINE
  5
296
330
1F
100
AcDbEntity
  8
109
  6
CONTINUOUS
 62
     7
100
AcDbLine
 10
233.998134
 20
-34.017421
 30
0.0
 11
233.998134
 21
-29.982576
 31
0.0
  0
LINE
  5
297
330
1F
100
AcDbEntity
  8
109
  6
CONTINUOUS
 62
     7
100
AcDbLine
 10
233.918033
 20
-26.016023
 30
0.0
 11
233.918033
 21
-29.983974
 31
0.0
  0
LINE
  5
298
330
1F
100
AcDbEntity
  8
109
  6
CONTINUOUS
 62
     7
100
AcDbLine
 10
233.998134
 20
-26.017421
 30
0.0
 11
233.998134
 21
-21.982576
 31
0.0
  0
LINE
  5
299
330
1F
100
AcDbEntity
  8
109
  6
CONTINUOUS
 62
     7
100
AcDbLine
 10
233.918033
 20
-18.016023
 30
0.0
 11
233.918033
 21
-21.983974
 31
0.0
  0
LINE
  5
29A
330
1F
100
AcDbEntity
  8
109
  6
CONTINUOUS
 62
     7
100
AcDbLine
 10
233.998134
 20
-18.017421
 30
0.0
 11
233.998134
 21
-13.982576
 31
0.0
  0
LINE
  5
29B
330
1F
100
AcDbEntity
  8
109
  6
CONTINUOUS
 62
     7
100
AcDbLine
 10
233.918033
 20
-13.983974
 30
0.0
 11
233.918033
 21
-10.016023
 31
0.0
  0
LINE
  5
29C
330
1F
100
AcDbEntity
  8
109
  6
CONTINUOUS
 62
     7
100
AcDbLine
 10
233.998134
 20
-10.017421
 30
0.0
 11
233.998134
 21
-5.982576
 31
0.0
  0
LINE
  5
29D
330
1F
100
AcDbEntity
  8
109
  6
CONTINUOUS
 62
     7
100
AcDbLine
 10
233.918033
 20
-2.016023
 30
0.0
 11
233.918033
 21
-5.983974
 31
0.0
  0
LINE
  5
29E
330
1F
100
AcDbEntity
  8
109
  6
CONTINUOUS
 62
     7
100
AcDbLine
 10
233.998134
 20
-2.017421
 30
0.0
 11
233.998134
 21
2.017424
 31
0.0
  0
LINE
  5
29F
330
1F
100
AcDbEntity
  8
109
  6
CONTINUOUS
 62
     7
100
AcDbLine
 10
233.918033
 20
5.983977
 30
0.0
 11
233.918033
 21
2.016026
 31
0.0
  0
LINE
  5
2A0
330
1F
100
AcDbEntity
  8
109
  6
CONTINUOUS
 62
     7
100
AcDbLine
 10
233.998134
 20
5.982579
 30
0.0
 11
233.998134
 21
10.017424
 31
0.0
  0
LINE
  5
2A1
330
1F
100
AcDbEntity
  8
109
  6
CONTINUOUS
 62
     7
100
AcDbLine
 10
233.918033
 20
13.983977
 30
0.0
 11
233.918033
 21
10.016025
 31
0.0
  0
LINE
  5
2A2
330
1F
100
AcDbEntity
  8
109
  6
CONTINUOUS
 62
     7
100
AcDbLine
 10
233.998134
 20
13.982579
 30
0.0
 11
233.998134
 21
18.017424
 31
0.0
  0
LINE
  5
2A3
330
1F
100
AcDbEntity
  8
109
  6
CONTINUOUS
 62
     7
100
AcDbLine
 10
233.918033
 20
21.983977
 30
0.0
 11
233.918033
 21
18.016025
 31
0.0
  0
LINE
  5
2A4
330
1F
100
AcDbEntity
  8
109
  6
CONTINUOUS
 62
     7
100
AcDbLine
 10
233.998134
 20
21.982579
 30
0.0
 11
233.998134
 21
26.017423
 31
0.0
  0
LINE
  5
2A5
330
1F
100
AcDbEntity
  8
109
  6
CONTINUOUS
 62
     7
100
AcDbLine
 10
233.918033
 20
29.983977
 30
0.0
 11
233.918033
 21
26.016025
 31
0.0
  0
LINE
  5
2A6
330
1F
100
AcDbEntity
  8
109
  6
CONTINUOUS
 62
     7
100
AcDbLine
 10
233.998134
 20
29.982578
 30
0.0
 11
233.998134
 21
34.017423
 31
0.0
  0
LINE
  5
2A7
330
1F
100
AcDbEntity
  8
109
  6
CONTINUOUS
 62
     7
100
AcDbLine
 10
233.918033
 20
37.983977
 30
0.0
 11
233.918033
 21
34.016025
 31
0.0
  0
LINE
  5
2A8
330
1F
100
AcDbEntity
  8
109
  6
CONTINUOUS
 62
     7
100
AcDbLine
 10
233.998134
 20
37.982578
 30
0.0
 11
233.998134
 21
42.017423
 31
0.0
  0
LINE
  5
2A9
330
1F
100
AcDbEntity
  8
109
  6
CONTINUOUS
 62
     7
100
AcDbLine
 10
233.918033
 20
45.983977
 30
0.0
 11
233.918033
 21
42.016025
 31
0.0
  0
LINE
  5
2AA
330
1F
100
AcDbEntity
  8
109
  6
CONTINUOUS
 62
     7
100
AcDbLine
 10
233.998134
 20
45.982579
 30
0.0
 11
233.998134
 21
50.017423
 31
0.0
  0
LINE
  5
2AB
330
1F
100
AcDbEntity
  8
109
  6
CONTINUOUS
 62
     7
100
AcDbLine
 10
233.918033
 20
53.983977
 30
0.0
 11
233.918033
 21
50.016025
 31
0.0
  0
LINE
  5
2AC
330
1F
100
AcDbEntity
  8
109
  6
CONTINUOUS
 62
     7
100
AcDbLine
 10
233.917889
 20
-67.500275
 30
0.0
 11
245.0
 21
-67.47577
 31
0.0
  0
LINE
  5
2AD
330
1F
100
AcDbEntity
  8
109
  6
CONTINUOUS
 62
     7
100
AcDbLine
 10
233.917888
 20
-74.3906
 30
0.0
 11
244.999999
 21
-74.565417
 31
0.0
  0
LINE
  5
2AE
330
1F
100
AcDbEntity
  8
109
  6
HIDDEN2
 62
     1
100
AcDbLine
 10
250.0
 20
52.333671
 30
0.0
 11
233.999999
 21
49.512439
 31
0.0
  0
LINE
  5
2AF
330
1F
100
AcDbEntity
  8
109
  6
CONTINUOUS
 62
     7
100
AcDbLine
 10
233.998133
 20
-74.511183
 30
0.0
 11
244.999999
 21
-75.184086
 31
0.0
  0
LINE
  5
2B0
330
1F
100
AcDbEntity
  8
109
  6
CONTINUOUS
 62
     7
100
AcDbLine
 10
232.999998
 20
-73.950134
 30
0.0
 11
233.998133
 21
-74.511183
 31
0.0
  0
LINE
  5
2B1
330
1F
100
AcDbEntity
  8
109
  6
CONTINUOUS
 62
     7
100
AcDbLine
 10
244.999999
 20
-74.499998
 30
0.0
 11
249.999999
 21
-74.412723
 31
0.0
  0
LINE
  5
2B2
330
1F
100
AcDbEntity
  8
109
  6
CONTINUOUS
 62
     7
100
AcDbLine
 10
233.998133
 20
74.511183
 30
0.0
 11
244.999999
 21
75.184086
 31
0.0
  0
LINE
  5
2B3
330
1F
100
AcDbEntity
  8
109
  6
CONTINUOUS
 62
     7
100
AcDbLine
 10
232.999998
 20
73.950134
 30
0.0
 11
233.998133
 21
74.511183
 31
0.0
  0
LINE
  5
2B4
330
1F
100
AcDbEntity
  8
109
  6
CONTINUOUS
 62
     7
100
AcDbLine
 10
244.999999
 20
74.499998
 30
0.0
 11
249.999999
 21
74.412723
 31
0.0
  0
LINE
  5
2B5
330
1F
100
AcDbEntity
  8
109
  6
HIDDEN2
 62
     1
100
AcDbLine
 10
252.0
 20
-52.5
 30
0.0
 11
250.0
 21
-52.5
 31
0.0
  0
LINE
  5
2B6
330
1F
100
AcDbEntity
  8
109
  6
HIDDEN2
 62
     1
100
AcDbLine
 10
252.0
 20
52.5
 30
0.0
 11
250.0
 21
52.5
 31
0.0
  0
LINE
  5
2B7
330
1F
100
AcDbEntity
  8
109
  6
CONTINUOUS
 62
     7
100
AcDbLine
 10
252.0
 20
-77.5
 30
0.0
 11
250.0
 21
-77.5
 31
0.0
  0
LINE
  5
2B8
330
1F
100
AcDbEntity
  8
109
  6
CONTINUOUS
 62
     7
100
AcDbLine
 10
252.0
 20
77.5
 30
0.0
 11
250.0
 21
77.5
 31
0.0
  0
LINE
  5
2B9
330
1F
100
AcDbEntity
  8
109
  6
CONTINUOUS
 62
     7
100
AcDbLine
 10
233.917927
 20
-58.016021
 30
0.0
 11
245.0
 21
-58.209459
 31
0.0
  0
LINE
  5
2BA
330
1F
100
AcDbEntity
  8
109
  6
CONTINUOUS
 62
     7
100
AcDbLine
 10
245.0
 20
-50.209459
 30
0.0
 11
233.918033
 21
-50.016023
 31
0.0
  0
LINE
  5
2BB
330
1F
100
AcDbEntity
  8
109
  6
CONTINUOUS
 62
     7
100
AcDbLine
 10
245.0
 20
-42.209459
 30
0.0
 11
233.918033
 21
-42.016023
 31
0.0
  0
LINE
  5
2BC
330
1F
100
AcDbEntity
  8
109
  6
CONTINUOUS
 62
     7
100
AcDbLine
 10
245.0
 20
-34.209459
 30
0.0
 11
233.918033
 21
-34.016023
 31
0.0
  0
LINE
  5
2BD
330
1F
100
AcDbEntity
  8
109
  6
CONTINUOUS
 62
     7
100
AcDbLine
 10
245.0
 20
-26.209459
 30
0.0
 11
233.918033
 21
-26.016023
 31
0.0
  0
LINE
  5
2BE
330
1F
100
AcDbEntity
  8
109
  6
CONTINUOUS
 62
     7
100
AcDbLine
 10
245.0
 20
-18.209459
 30
0.0
 11
233.918033
 21
-18.016023
 31
0.0
  0
LINE
  5
2BF
330
1F
100
AcDbEntity
  8
109
  6
CONTINUOUS
 62
     7
100
AcDbLine
 10
245.0
 20
-10.209459
 30
0.0
 11
233.918033
 21
-10.016023
 31
0.0
  0
LINE
  5
2C0
330
1F
100
AcDbEntity
  8
109
  6
CONTINUOUS
 62
     7
100
AcDbLine
 10
245.0
 20
-2.209459
 30
0.0
 11
233.918033
 21
-2.016023
 31
0.0
  0
LINE
  5
2C1
330
1F
100
AcDbEntity
  8
109
  6
CONTINUOUS
 62
     7
100
AcDbLine
 10
245.0
 20
5.79054
 30
0.0
 11
233.918033
 21
5.983977
 31
0.0
  0
LINE
  5
2C2
330
1F
100
AcDbEntity
  8
109
  6
CONTINUOUS
 62
     7
100
AcDbLine
 10
245.0
 20
13.79054
 30
0.0
 11
233.918033
 21
13.983977
 31
0.0
  0
LINE
  5
2C3
330
1F
100
AcDbEntity
  8
109
  6
CONTINUOUS
 62
     7
100
AcDbLine
 10
245.0
 20
21.79054
 30
0.0
 11
233.918033
 21
21.983977
 31
0.0
  0
LINE
  5
2C4
330
1F
100
AcDbEntity
  8
109
  6
CONTINUOUS
 62
     7
100
AcDbLine
 10
245.0
 20
29.79054
 30
0.0
 11
233.918033
 21
29.983977
 31
0.0
  0
LINE
  5
2C5
330
1F
100
AcDbEntity
  8
109
  6
CONTINUOUS
 62
     7
100
AcDbLine
 10
245.0
 20
37.79054
 30
0.0
 11
233.918033
 21
37.983977
 31
0.0
  0
LINE
  5
2C6
330
1F
100
AcDbEntity
  8
109
  6
CONTINUOUS
 62
     7
100
AcDbLine
 10
245.0
 20
45.79054
 30
0.0
 11
233.918033
 21
45.983977
 31
0.0
  0
LINE
  5
2C7
330
1F
100
AcDbEntity
  8
109
  6
CONTINUOUS
 62
     7
100
AcDbLine
 10
245.0
 20
53.79054
 30
0.0
 11
233.918033
 21
53.983977
 31
0.0
  0
LINE
  5
2C8
330
1F
100
AcDbEntity
  8
109
  6
CONTINUOUS
 62
     7
100
AcDbLine
 10
22.5
 20
-252.0
 30
0.0
 11
-22.5
 21
-252.0
 31
0.0
  0
LINE
  5
2C9
330
1F
100
AcDbEntity
  8
109
  6
CONTINUOUS
 62
     7
100
AcDbLine
 10
-22.5
 20
-250.0
 30
0.0
 11
22.5
 21
-250.0
 31
0.0
  0
LINE
  5
2CA
330
1F
100
AcDbEntity
  8
109
  6
CONTINUOUS
 62
     7
100
AcDbLine
 10
-20.184087
 20
-244.999999
 30
0.0
 11
20.184087
 21
-244.999999
 31
0.0
  0
LINE
  5
2CB
330
1F
100
AcDbEntity
  8
109
  6
CONTINUOUS
 62
     7
100
AcDbLine
 10
245.0
 20
-53.790538
 30
0.0
 11
233.918033
 21
-53.983974
 31
0.0
  0
LINE
  5
2CC
330
1F
100
AcDbEntity
  8
109
  6
CONTINUOUS
 62
     7
100
AcDbLine
 10
245.0
 20
-45.790538
 30
0.0
 11
233.918033
 21
-45.983974
 31
0.0
  0
LINE
  5
2CD
330
1F
100
AcDbEntity
  8
109
  6
CONTINUOUS
 62
     7
100
AcDbLine
 10
245.0
 20
-37.790538
 30
0.0
 11
233.918033
 21
-37.983974
 31
0.0
  0
LINE
  5
2CE
330
1F
100
AcDbEntity
  8
109
  6
CONTINUOUS
 62
     7
100
AcDbLine
 10
245.0
 20
-29.790538
 30
0.0
 11
233.918033
 21
-29.983974
 31
0.0
  0
LINE
  5
2CF
330
1F
100
AcDbEntity
  8
109
  6
CONTINUOUS
 62
     7
100
AcDbLine
 10
245.0
 20
-21.790538
 30
0.0
 11
233.918033
 21
-21.983974
 31
0.0
  0
LINE
  5
2D0
330
1F
100
AcDbEntity
  8
109
  6
CONTINUOUS
 62
     7
100
AcDbLine
 10
245.0
 20
-13.790538
 30
0.0
 11
233.918033
 21
-13.983974
 31
0.0
  0
LINE
  5
2D1
330
1F
100
AcDbEntity
  8
109
  6
CONTINUOUS
 62
     7
100
AcDbLine
 10
245.0
 20
-5.790538
 30
0.0
 11
233.918033
 21
-5.983974
 31
0.0
  0
LINE
  5
2D2
330
1F
100
AcDbEntity
  8
109
  6
CONTINUOUS
 62
     7
100
AcDbLine
 10
245.0
 20
2.209462
 30
0.0
 11
233.918033
 21
2.016026
 31
0.0
  0
LINE
  5
2D3
330
1F
100
AcDbEntity
  8
109
  6
CONTINUOUS
 62
     7
100
AcDbLine
 10
245.0
 20
10.209462
 30
0.0
 11
233.918033
 21
10.016025
 31
0.0
  0
LINE
  5
2D4
330
1F
100
AcDbEntity
  8
109
  6
CONTINUOUS
 62
     7
100
AcDbLine
 10
245.0
 20
18.209462
 30
0.0
 11
233.918033
 21
18.016025
 31
0.0
  0
LINE
  5
2D5
330
1F
100
AcDbEntity
  8
109
  6
CONTINUOUS
 62
     7
100
AcDbLine
 10
245.0
 20
26.209462
 30
0.0
 11
233.918033
 21
26.016025
 31
0.0
  0
LINE
  5
2D6
330
1F
100
AcDbEntity
  8
109
  6
CONTINUOUS
 62
     7
100
AcDbLine
 10
245.0
 20
34.209462
 30
0.0
 11
233.918033
 21
34.016025
 31
0.0
  0
LINE
  5
2D7
330
1F
100
AcDbEntity
  8
109
  6
CONTINUOUS
 62
     7
100
AcDbLine
 10
245.0
 20
42.209462
 30
0.0
 11
233.918033
 21
42.016025
 31
0.0
  0
LINE
  5
2D8
330
1F
100
AcDbEntity
  8
109
  6
CONTINUOUS
 62
     7
100
AcDbLine
 10
245.0
 20
50.209462
 30
0.0
 11
233.918033
 21
50.016025
 31
0.0
  0
LINE
  5
2D9
330
1F
100
AcDbEntity
  8
109
  6
CONTINUOUS
 62
     7
100
AcDbLine
 10
233.917927
 20
58.016021
 30
0.0
 11
245.0
 21
58.209459
 31
0.0
  0
LINE
  5
2DA
330
1F
100
AcDbEntity
  8
109
  6
CONTINUOUS
 62
     7
100
AcDbLine
 10
232.999998
 20
-73.950134
 30
0.0
 11
232.999998
 21
73.950134
 31
0.0
  0
LINE
  5
2DB
330
1F
100
AcDbEntity
  8
109
  6
CONTINUOUS
 62
     7
100
AcDbLine
 10
233.998133
 20
-58.017421
 30
0.0
 11
233.998133
 21
-53.982576
 31
0.0
  0
LINE
  5
2DC
330
1F
100
AcDbEntity
  8
109
  6
CONTINUOUS
 62
     7
100
AcDbLine
 10
233.998133
 20
53.982578
 30
0.0
 11
233.998133
 21
58.017421
 31
0.0
  0
LINE
  5
2DD
330
1F
100
AcDbEntity
  8
109
  6
CONTINUOUS
 62
     7
100
AcDbLine
 10
244.999999
 20
-75.184086
 30
0.0
 11
244.999999
 21
75.184086
 31
0.0
  0
LINE
  5
2DE
330
1F
100
AcDbEntity
  8
109
  6
CONTINUOUS
 62
     7
100
AcDbLine
 10
250.0
 20
-77.5
 30
0.0
 11
250.0
 21
77.5
 31
0.0
  0
LINE
  5
2DF
330
1F
100
AcDbEntity
  8
109
  6
CONTINUOUS
 62
     7
100
AcDbLine
 10
252.0
 20
77.5
 30
0.0
 11
252.0
 21
-77.5
 31
0.0
  0
LINE
  5
2E0
330
1F
100
AcDbEntity
  8
109
  6
HIDDEN2
 62
     1
100
AcDbLine
 10
19.219552
 20
58.015667
 30
0.0
 11
19.276449
 21
58.017421
 31
0.0
  0
LINE
  5
2E1
330
1F
100
AcDbEntity
  8
109
  6
CONTINUOUS
 62
     7
100
AcDbLine
 10
-19.231034
 20
-233.917927
 30
0.0
 11
-14.922175
 21
-233.917889
 31
0.0
  0
LINE
  5
2E2
330
1F
100
AcDbEntity
  8
109
  6
CONTINUOUS
 62
     7
100
AcDbLine
 10
-12.500277
 20
-233.917889
 30
0.0
 11
-1.712541
 21
-233.917889
 31
0.0
  0
LINE
  5
2E3
330
1F
100
AcDbEntity
  8
109
  6
CONTINUOUS
 62
     7
100
AcDbLine
 10
19.231034
 20
-233.917927
 30
0.0
 11
14.922175
 21
-233.917927
 31
0.0
  0
LINE
  5
2E4
330
1F
100
AcDbEntity
  8
109
  6
CONTINUOUS
 62
     7
100
AcDbLine
 10
1.712541
 20
-233.917889
 30
0.0
 11
12.500277
 21
-233.917889
 31
0.0
  0
LINE
  5
2E5
330
1F
100
AcDbEntity
  8
109
  6
DASHDOT
 62
     1
100
AcDbLine
 10
0.0
 20
78.5
 30
0.0
 11
0.0
 21
-78.5
 31
0.0
  0
LINE
  5
2E6
330
1F
100
AcDbEntity
  8
109
  6
DASHDOT
 62
     1
100
AcDbLine
 10
-23.5
 20
0.0
 30
0.0
 11
23.5
 21
0.0
 31
0.0
  0
LINE
  5
2E7
330
1F
100
AcDbEntity
  8
109
  6
DASHDOT
 62
     1
100
AcDbLine
 10
231.262115
 20
0.0
 30
0.0
 11
253.262115
 21
0.0
 31
0.0
  0
LINE
  5
2E8
330
1F
100
AcDbEntity
  8
109
  6
DASHDOT
 62
     1
100
AcDbLine
 10
0.0
 20
-231.356406
 30
0.0
 11
0.0
 21
-253.356406
 31
0.0
  0
MTEXT
  5
2E9
330
1F
100
AcDbEntity
  8
109
  6
CONTINUOUS
 62
     7
100
AcDbMText
 10
125.0
 20
-185.0
 30
0.0
 40
5.0
 41
0.0
 71
     7
 72
     1
  1
Einlassmuschel^M\P42425100000-0
  7
FSB
1001
ACAD
1000
MTEXTBEGIN
1070
    73
1070
     2
1070
    44
1040
0.839983
1000
MTEXTEND
  0
ENDSEC
  0
SECTION
  2
OBJECTS
  0
DICTIONARY
  5
C
330
0
100
AcDbDictionary
  3
ACAD_GROUP
350
D
  3
ACAD_LAYOUT
350
1A
  3
ACAD_MLEADERSTYLE
350
30C
  3
ACAD_MLINESTYLE
350
17
  3
ACAD_PLOTSETTINGS
350
19
  3
ACAD_SCALELIST
350
48
  3
ACAD_VISUALSTYLE
350
2A
  3
ACDBHEADERROUNDTRIPXREC
350
2EA
  3
ACDBVARIABLEDICTIONARY
350
30A
  0
DICTIONARY
  5
D
102
{ACAD_REACTORS
330
C
102
}
330
C
100
AcDbDictionary
  0
DICTIONARY
  5
1A
102
{ACAD_REACTORS
330
C
102
}
330
C
100
AcDbDictionary
  0
DICTIONARY
  5
30C
102
{ACAD_REACTORS
330
C
102
}
330
C
100
AcDbDictionary
  0
DICTIONARY
  5
17
102
{ACAD_REACTORS
330
C
102
}
330
C
100
AcDbDictionary
  3
STANDARD
350
18
  0
DICTIONARY
  5
19
102
{ACAD_REACTORS
330
C
102
}
330
C
100
AcDbDictionary
  0
DICTIONARY
  5
48
102
{ACAD_REACTORS
330
C
102
}
330
C
100
AcDbDictionary
  3
A0
350
49
  3
A1
350
4A
  3
A2
350
4B
  3
A3
350
4C
  3
A4
350
4D
  3
A5
350
4E
  3
A6
350
4F
  3
A7
350
50
  3
A8
350
51
  3
A9
350
52
  3
B0
350
53
  3
B1
350
54
  3
B2
350
55
  3
B3
350
56
  3
B4
350
57
  3
B5
350
58
  3
B6
350
59
  3
B7
350
5A
  3
B8
350
5B
  3
B9
350
5C
  3
C0
350
5D
  3
C1
350
5E
  3
C2
350
5F
  3
C3
350
60
  3
C4
350
61
  3
C5
350
62
  3
C6
350
63
  3
C7
350
64
  3
C8
350
65
  3
C9
350
66
  3
D0
350
67
  3
D1
350
68
  3
D2
350
69
  0
DICTIONARY
  5
2A
102
{ACAD_REACTORS
330
C
102
}
330
C
100
AcDbDictionary
  3
2DWIREFRAME
350
2F
  3
3D_HIDDEN
350
31
  3
3DWIREFRAME
350
30
  3
BASIC
350
32
  3
BRIGHTEN
350
36
  3
COLORCHANGE
350
3A
  3
CONCEPTUAL
350
34
  3
DIM
350
35
  3
FACEPATTERN
350
39
  3
FLAT
350
2B
  3
FLATWITHEDGES
350
2C
  3
GOURAUD
350
2D
  3
GOURAUDWITHEDGES
350
2E
  3
LINEPATTERN
350
38
  3
REALISTIC
350
33
  3
THICKEN
350
37
  0
DICTIONARY
  5
2EA
102
{ACAD_REACTORS
330
C
102
}
330
C
100
AcDbDictionary
  3
CEPSNTYPE
350
2F3
  3
DIMSTYLEDATA
350
309
  3
FINGERPRINTGUID
350
2F4
  3
HYPERLINKBASE
350
2ED
  3
INSUNITS
350
2F2
  3
LAYOUTDICT
350
2EF
  3
LWETCUNION
350
2F1
  3
PLOTSETDICT
350
2F0
  3
PSVPSCALE
350
2F6
  3
PUCSBASE
350
2F9
  3
PUCSORGBACK
350
2FF
  3
PUCSORGBOTTOM
350
2FB
  3
PUCSORGFRONT
350
2FE
  3
PUCSORGLEFT
350
2FC
  3
PUCSORGRIGHT
350
2FD
  3
PUCSORGTOP
350
2FA
  3
PUCSORTHOREF
350
2F7
  3
PUCSORTHOVIEW
350
2F8
  3
STYLESHEET
350
2EE
  3
TSTACKALIGN
350
2EB
  3
TSTACKSIZE
350
2EC
  3
UCSBASE
350
302
  3
UCSORGBACK
350
308
  3
UCSORGBOTTOM
350
304
  3
UCSORGFRONT
350
307
  3
UCSORGLEFT
350
305
  3
UCSORGRIGHT
350
306
  3
UCSORGTOP
350
303
  3
UCSORTHOREF
350
300
  3
UCSORTHOVIEW
350
301
  3
VERSIONGUID
350
2F5
  0
DICTIONARY
  5
30A
102
{ACAD_REACTORS
330
C
102
}
330
C
100
AcDbDictionary
  3
CANNOSCALE
350
30F
  3
PSOLHEIGHT
350
30E
  3
PSOLWIDTH
350
30D
  0
MLINESTYLE
  5
18
102
{ACAD_REACTORS
330
17
102
}
330
17
100
AcDbMlineStyle
  2
Standard
 70
     0
  3

 62
   256
 51
90.0
 52
90.0
 71
     2
 49
0.5
 62
   256
  6
BYLAYER
 49
-0.5
 62
   256
  6
BYLAYER
  0
ACAD_PROXY_OBJECT
  5
49
102
{ACAD_REACTORS
330
48
102
}
330
48
100
AcDbProxyObject
 90
      499
 91
      502
 93
       41
310
903313A31580
  0
ACAD_PROXY_OBJECT
  5
4A
102
{ACAD_REACTORS
330
48
102
}
330
48
100
AcDbProxyObject
 90
      499
 91
      502
 93
      105
310
903313A324000000000000004000
  0
ACAD_PROXY_OBJECT
  5
4B
102
{ACAD_REACTORS
330
48
102
}
330
48
100
AcDbProxyObject
 90
      499
 91
      502
 93
      105
310
903313A344000000000000104000
  0
ACAD_PROXY_OBJECT
  5
4C
102
{ACAD_REACTORS
330
48
102
}
330
48
100
AcDbProxyObject
 90
      499
 91
      502
 93
      105
310
903313A354000000000000144000
  0
ACAD_PROXY_OBJECT
  5
4D
102
{ACAD_REACTORS
330
48
102
}
330
48
100
AcDbProxyObject
 90
      499
 91
      502
 93
      105
310
903313A384000000000000204000
  0
ACAD_PROXY_OBJECT
  5
4E
102
{ACAD_REACTORS
330
48
102
}
330
48
100
AcDbProxyObject
 90
      499
 91
      502
 93
      113
310
904313A31304000000000000244000
  0
ACAD_PROXY_OBJECT
  5
4F
102
{ACAD_REACTORS
330
48
102
}
330
48
100
AcDbProxyObject
 90
      499
 91
      502
 93
      113
310
904313A31364000000000000304000
  0
ACAD_PROXY_OBJECT
  5
50
102
{ACAD_REACTORS
330
48
102
}
330
48
100
AcDbProxyObject
 90
      499
 91
      502
 93
      113
310
904313A32304000000000000344000
  0
ACAD_PROXY_OBJECT
  5
51
102
{ACAD_REACTORS
330
48
102
}
330
48
100
AcDbProxyObject
 90
      499
 91
      502
 93
      113
310
904313A333040000000000003E4000
  0
ACAD_PROXY_OBJECT
  5
52
102
{ACAD_REACTORS
330
48
102
}
330
48
100
AcDbProxyObject
 90
      499
 91
      502
 93
      113
310
904313A34304000000000000444000
  0
ACAD_PROXY_OBJECT
  5
53
102
{ACAD_REACTORS
330
48
102
}
330
48
100
AcDbProxyObject
 90
      499
 91
      502
 93
      113
310
904313A35304000000000000494000
  0
ACAD_PROXY_OBJECT
  5
54
102
{ACAD_REACTORS
330
48
102
}
330
48
100
AcDbProxyObject
 90
      499
 91
      502
 93
      121
310
905313A3130304000000000000594000
  0
ACAD_PROXY_OBJECT
  5
55
102
{ACAD_REACTORS
330
48
102
}
330
48
100
AcDbProxyObject
 90
      499
 91
      502
 93
      105
310
903323A310000000000000010100
  0
ACAD_PROXY_OBJECT
  5
56
102
{ACAD_REACTORS
330
48
102
}
330
48
100
AcDbProxyObject
 90
      499
 91
      502
 93
      105
310
903343A310000000000000410100
  0
ACAD_PROXY_OBJECT
  5
57
102
{ACAD_REACTORS
330
48
102
}
330
48
100
AcDbProxyObject
 90
      499
 91
      502
 93
      105
310
903383A310000000000000810100
  0
ACAD_PROXY_OBJECT
  5
58
102
{ACAD_REACTORS
330
48
102
}
330
48
100
AcDbProxyObject
 90
      499
 91
      502
 93
      113
310
90431303A310000000000000910100
  0
ACAD_PROXY_OBJECT
  5
59
102
{ACAD_REACTORS
330
48
102
}
330
48
100
AcDbProxyObject
 90
      499
 91
      502
 93
      121
310
9053130303A310000000000001650100
  0
ACAD_PROXY_OBJECT
  5
5A
102
{ACAD_REACTORS
330
48
102
}
330
48
100
AcDbProxyObject
 90
      499
 91
      502
 93
      257
310
90E312F31323822203D2031272D3022000000000000200FC000000000000284000
  0
ACAD_PROXY_OBJECT
  5
5B
102
{ACAD_REACTORS
330
48
102
}
330
48
100
AcDbProxyObject
 90
      499
 91
      502
 93
      249
310
90D312F363422203D2031272D3022000000000000240FC000000000000284000
  0
ACAD_PROXY_OBJECT
  5
5C
102
{ACAD_REACTORS
330
48
102
}
330
48
100
AcDbProxyObject
 90
      499
 91
      502
 93
      249
310
90D312F333222203D2031272D3022000000000000280FC000000000000284000
  0
ACAD_PROXY_OBJECT
  5
5D
102
{ACAD_REACTORS
330
48
102
}
330
48
100
AcDbProxyObject
 90
      499
 91
      502
 93
      249
310
90D312F313622203D2031272D30220000000000002C0FC000000000000284000
  0
ACAD_PROXY_OBJECT
  5
5E
102
{ACAD_REACTORS
330
48
102
}
330
48
100
AcDbProxyObject
 90
      499
 91
      502
 93
      249
310
90D332F333222203D2031272D30220000000000002E0FC000000000000284000
  0
ACAD_PROXY_OBJECT
  5
5F
102
{ACAD_REACTORS
330
48
102
}
330
48
100
AcDbProxyObject
 90
      499
 91
      502
 93
      241
310
90C312F3822203D2031272D3022000000000000300FC000000000000284000
  0
ACAD_PROXY_OBJECT
  5
60
102
{ACAD_REACTORS
330
48
102
}
330
48
100
AcDbProxyObject
 90
      499
 91
      502
 93
      249
310
90D332F313622203D2031272D3022000000000000320FC000000000000284000
  0
ACAD_PROXY_OBJECT
  5
61
102
{ACAD_REACTORS
330
48
102
}
330
48
100
AcDbProxyObject
 90
      499
 91
      502
 93
      241
310
90C312F3422203D2031272D3022000000000000340FC000000000000284000
  0
ACAD_PROXY_OBJECT
  5
62
102
{ACAD_REACTORS
330
48
102
}
330
48
100
AcDbProxyObject
 90
      499
 91
      502
 93
      241
310
90C332F3822203D2031272D3022000000000000360FC000000000000284000
  0
ACAD_PROXY_OBJECT
  5
63
102
{ACAD_REACTORS
330
48
102
}
330
48
100
AcDbProxyObject
 90
      499
 91
      502
 93
      241
310
90C312F3222203D2031272D3022000000000000380FC000000000000284000
  0
ACAD_PROXY_OBJECT
  5
64
102
{ACAD_REACTORS
330
48
102
}
330
48
100
AcDbProxyObject
 90
      499
 91
      502
 93
      241
310
90C332F3422203D2031272D30220000000000003A0FC000000000000284000
  0
ACAD_PROXY_OBJECT
  5
65
102
{ACAD_REACTORS
330
48
102
}
330
48
100
AcDbProxyObject
 90
      499
 91
      502
 93
      161
310
90A3122203D2031272D30224000000000000284000
  0
ACAD_PROXY_OBJECT
  5
66
102
{ACAD_REACTORS
330
48
102
}
330
48
100
AcDbProxyObject
 90
      499
 91
      502
 93
      257
310
90E312D312F3222203D2031272D30220000000000003E0FC000000000000284000
  0
ACAD_PROXY_OBJECT
  5
67
102
{ACAD_REACTORS
330
48
102
}
330
48
100
AcDbProxyObject
 90
      499
 91
      502
 93
      225
310
90A3322203D2031272D302200000000000002100000000000000284000
  0
ACAD_PROXY_OBJECT
  5
68
102
{ACAD_REACTORS
330
48
102
}
330
48
100
AcDbProxyObject
 90
      499
 91
      502
 93
      225
310
90A3622203D2031272D302200000000000006100000000000000284000
  0
ACAD_PROXY_OBJECT
  5
69
102
{ACAD_REACTORS
330
48
102
}
330
48
100
AcDbProxyObject
 90
      499
 91
      502
 93
      249
310
90D31272D3022203D2031272D30220000000000000A100000000000000284000
  0
ACAD_PROXY_OBJECT
  5
2F
102
{ACAD_REACTORS
330
2A
102
}
330
2A
100
AcDbProxyObject
 90
      499
 91
      501
 93
      436
310
42CC9915DA5C99599C985B595049028333333333333E3BF0000000000000FB0107901411070040501600405405064090741402480A0340
1001
ACAD
1000
AcDbSavedByObjectVersion
1070
     0
  0
ACAD_PROXY_OBJECT
  5
31
102
{ACAD_REACTORS
330
2A
102
}
330
2A
100
AcDbProxyObject
 90
      499
 91
      501
 93
      500
310
424CD108121A5919195B90640502408333333333333E3BF0000000000000FB01079024090700405020000000000001110200405405064090740C02480A0340
1001
ACAD
1000
AcDbSavedByObjectVersion
1070
     0
  0
ACAD_PROXY_OBJECT
  5
30
102
{ACAD_REACTORS
330
2A
102
}
330
2A
100
AcDbProxyObject
 90
      499
 91
      501
 93
      436
310
42CCD915DA5C99599C985B595059028333333333333E3BF0000000000000FB0107901411070040501600405405064090741402480A0340
1001
ACAD
1000
AcDbSavedByObjectVersion
1070
     0
  0
ACAD_PROXY_OBJECT
  5
32
102
{ACAD_REACTORS
330
2A
102
}
330
2A
100
AcDbProxyObject
 90
      499
 91
      501
 93
      388
310
4150985CDA58D07406404333333333333E3BF0000000000000FB0107A41107004050150841D405064090741402480A0350
1001
ACAD
1000
AcDbSavedByObjectVersion
1070
     0
  0
ACAD_PROXY_OBJECT
  5
36
102
{ACAD_REACTORS
330
2A
102
}
330
2A
100
AcDbProxyObject
 90
      499
 91
      501
 93
      428
310
42109C9A59DA1D195B90C409028333333333333E3BF0000000000000FB010790141107004050150841D405064090741402480A029950
1001
ACAD
1000
AcDbSavedByObjectVersion
1070
     0
  0
ACAD_PROXY_OBJECT
  5
3A
102
{ACAD_REACTORS
330
2A
102
}
330
2A
100
AcDbProxyObject
 90
      499
 91
      501
 93
      452
310
42D0DBDB1BDC90DA185B99D95104090240C333333333333E3BF0000000000000FB0108901411070040501508421405064090741402480A0350
1001
ACAD
1000
AcDbSavedByObjectVersion
1070
     0
  0
ACAD_PROXY_OBJECT
  5
34
102
{ACAD_REACTORS
330
2A
102
}
330
2A
100
AcDbProxyObject
 90
      499
 91
      501
 93
      500
310
4290DBDB98D95C1D1D585B10940D028333333333333E3BF0000000000000FB0107902409070040501000000000000111010841D405064090740C02480A0340
1001
ACAD
1000
AcDbSavedByObjectVersion
1070
     0
  0
ACAD_PROXY_OBJECT
  5
35
102
{ACAD_REACTORS
330
2A
102
}
330
2A
100
AcDbProxyObject
 90
      499
 91
      501
 93
      412
310
40D11A5B50B409028333333333333E3BF0000000000000FB010790141107004050150841D405064090741402480A02677FFFFFD0
1001
ACAD
1000
AcDbSavedByObjectVersion
1070
     0
  0
ACAD_PROXY_OBJECT
  5
39
102
{ACAD_REACTORS
330
2A
102
}
330
2A
100
AcDbProxyObject
 90
      499
 91
      501
 93
      444
310
42D19858D95C185D1D195C9B90F409028333333333333E3BF0000000000000FB010790141107004050150841D405064090741402480A0350
1001
ACAD
1000
AcDbSavedByObjectVersion
1070
     0
  0
ACAD_PROXY_OBJECT
  5
2B
102
{ACAD_REACTORS
330
2A
102
}
330
2A
100
AcDbProxyObject
 90
      499
 91
      501
 93
      388
310
41119B185D240901404333333333333E3BF0000000000000F9010740A41107004050150841D405064090741402480A1B50
1001
ACAD
1000
AcDbSavedByObjectVersion
1070
     0
  0
ACAD_PROXY_OBJECT
  5
2C
102
{ACAD_REACTORS
330
2A
102
}
330
2A
100
AcDbProxyObject
 90
      499
 91
      501
 93
      476
310
43519B185D15DA5D1A115919D95CD0140901404333333333333E3BF0000000000000F9010740901411070040501600405405064090741402480A1B50
1001
ACAD
1000
AcDbSavedByObjectVersion
1070
     0
  0
ACAD_PROXY_OBJECT
  5
2D
102
{ACAD_REACTORS
330
2A
102
}
330
2A
100
AcDbProxyObject
 90
      499
 91
      501
 93
      412
310
41D1DBDD5C985D5910240902404333333333333E3BF0000000000000F9010740A411070040501641D405064090741402480A1B50
1001
ACAD
1000
AcDbSavedByObjectVersion
1070
     0
  0
ACAD_PROXY_OBJECT
  5
2E
102
{ACAD_REACTORS
330
2A
102
}
330
2A
100
AcDbProxyObject
 90
      499
 91
      501
 93
      500
310
4411DBDD5C985D5915DA5D1A115919D95CD0340902404333333333333E3BF0000000000000F9010740901411070040501600405405064090741402480A1B50
1001
ACAD
1000
AcDbSavedByObjectVersion
1070
     0
  0
ACAD_PROXY_OBJECT
  5
38
102
{ACAD_REACTORS
330
2A
102
}
330
2A
100
AcDbProxyObject
 90
      499
 91
      501
 93
      444
310
42D31A5B995C185D1D195C9B90E409028333333333333E3BF0000000000000FB010790141107004050750841D405064090741402483A0350
1001
ACAD
1000
AcDbSavedByObjectVersion
1070
     0
  0
ACAD_PROXY_OBJECT
  5
33
102
{ACAD_REACTORS
330
2A
102
}
330
2A
100
AcDbProxyObject
 90
      499
 91
      501
 93
      420
310
425499585B1A5CDD1A58D08409028333333333333E3BF0000000000000FB01079019070040501508421405064090741402480A1B40
1001
ACAD
1000
AcDbSavedByObjectVersion
1070
     0
  0
ACAD_PROXY_OBJECT
  5
37
102
{ACAD_REACTORS
330
2A
102
}
330
2A
100
AcDbProxyObject
 90
      499
 91
      501
 93
      412
310
41D51A1A58DAD95B90D409028333333333333E3BF0000000000000FB010790141107004050150C41D405064090741402480A0350
1001
ACAD
1000
AcDbSavedByObjectVersion
1070
     0
  0
ACAD_PROXY_OBJECT
  5
2F3
102
{ACAD_REACTORS
330
2EA
102
}
330
2EA
100
AcDbProxyObject
 90
      499
 91
      504
 93
       58
310
4196800000000000
  0
ACAD_PROXY_OBJECT
  5
309
102
{ACAD_REACTORS
330
2EA
102
}
330
2EA
100
AcDbProxyObject
 90
      499
 91
      504
 93
      306
310
497A00C180079114D51653117A80C040079ECB811500550044400000000000003A80C040079F40
  0
ACAD_PROXY_OBJECT
  5
2F4
102
{ACAD_REACTORS
330
2EA
102
}
330
2EA
100
AcDbProxyObject
 90
      499
 91
      504
 93
      354
310
4AC0400980079ED18DD04D4DCCCD914B4E0D8E0D4B4D0E0CD0CB4E508C508B4CD18C4D8E4C510D8C90904CDF40
  0
ACAD_PROXY_OBJECT
  5
2ED
102
{ACAD_REACTORS
330
2EA
102
}
330
2EA
100
AcDbProxyObject
 90
      499
 91
      504
 93
       50
310
41404000000780
  0
ACAD_PROXY_OBJECT
  5
2F2
102
{ACAD_REACTORS
330
2EA
102
}
330
2EA
100
AcDbProxyObject
 90
      499
 91
      504
 93
       58
310
4196800100000000
  0
ACAD_PROXY_OBJECT
  5
2EF
102
{ACAD_REACTORS
330
2EA
102
}
330
2EA
100
AcDbProxyObject
 90
      499
 91
      504
 93
       90
310
429500468000000000000000
  0
ACAD_PROXY_OBJECT
  5
2F1
102
{ACAD_REACTORS
330
2EA
102
}
330
2EA
100
AcDbProxyObject
 90
      499
 91
      504
 93
       58
310
419680074A800000
  0
ACAD_PROXY_OBJECT
  5
2F0
102
{ACAD_REACTORS
330
2EA
102
}
330
2EA
100
AcDbProxyObject
 90
      499
 91
      504
 93
       90
310
429500464000000000000000
  0
ACAD_PROXY_OBJECT
  5
2F6
102
{ACAD_REACTORS
330
2EA
102
}
330
2EA
100
AcDbProxyObject
 90
      499
 91
      504
 93
       90
310
428A00000000000000000000
  0
ACAD_PROXY_OBJECT
  5
2F9
102
{ACAD_REACTORS
330
2EA
102
}
330
2EA
100
AcDbProxyObject
 90
      499
 91
      504
 93
       90
310
429500400000000000000000
  0
ACAD_PROXY_OBJECT
  5
2FF
102
{ACAD_REACTORS
330
2EA
102
}
330
2EA
100
AcDbProxyObject
 90
      499
 91
      504
 93
      218
310
46828000000000000000000000000000000000000000000000000000
  0
ACAD_PROXY_OBJECT
  5
2FB
102
{ACAD_REACTORS
330
2EA
102
}
330
2EA
100
AcDbProxyObject
 90
      499
 91
      504
 93
      218
310
46828000000000000000000000000000000000000000000000000000
  0
ACAD_PROXY_OBJECT
  5
2FE
102
{ACAD_REACTORS
330
2EA
102
}
330
2EA
100
AcDbProxyObject
 90
      499
 91
      504
 93
      218
310
46828000000000000000000000000000000000000000000000000000
  0
ACAD_PROXY_OBJECT
  5
2FC
102
{ACAD_REACTORS
330
2EA
102
}
330
2EA
100
AcDbProxyObject
 90
      499
 91
      504
 93
      218
310
46828000000000000000000000000000000000000000000000000000
  0
ACAD_PROXY_OBJECT
  5
2FD
102
{ACAD_REACTORS
330
2EA
102
}
330
2EA
100
AcDbProxyObject
 90
      499
 91
      504
 93
      218
310
46828000000000000000000000000000000000000000000000000000
  0
ACAD_PROXY_OBJECT
  5
2FA
102
{ACAD_REACTORS
330
2EA
102
}
330
2EA
100
AcDbProxyObject
 90
      499
 91
      504
 93
      218
310
46828000000000000000000000000000000000000000000000000000
  0
ACAD_PROXY_OBJECT
  5
2F7
102
{ACAD_REACTORS
330
2EA
102
}
330
2EA
100
AcDbProxyObject
 90
      499
 91
      504
 93
       90
310
429500400000000000000000
  0
ACAD_PROXY_OBJECT
  5
2F8
102
{ACAD_REACTORS
330
2EA
102
}
330
2EA
100
AcDbProxyObject
 90
      499
 91
      504
 93
       42
310
411180000000
  0
ACAD_PROXY_OBJECT
  5
2EE
102
{ACAD_REACTORS
330
2EA
102
}
330
2EA
100
AcDbProxyObject
 90
      499
 91
      504
 93
       50
310
41404000000780
  0
ACAD_PROXY_OBJECT
  5
2EB
102
{ACAD_REACTORS
330
2EA
102
}
330
2EA
100
AcDbProxyObject
 90
      499
 91
      504
 93
       58
310
4196800040000000
  0
ACAD_PROXY_OBJECT
  5
2EC
102
{ACAD_REACTORS
330
2EA
102
}
330
2EA
100
AcDbProxyObject
 90
      499
 91
      504
 93
       58
310
4196801180000000
  0
ACAD_PROXY_OBJECT
  5
302
102
{ACAD_REACTORS
330
2EA
102
}
330
2EA
100
AcDbProxyObject
 90
      499
 91
      504
 93
       90
310
429500400000000000000000
  0
ACAD_PROXY_OBJECT
  5
308
102
{ACAD_REACTORS
330
2EA
102
}
330
2EA
100
AcDbProxyObject
 90
      499
 91
      504
 93
      218
310
46828000000000000000000000000000000000000000000000000000
  0
ACAD_PROXY_OBJECT
  5
304
102
{ACAD_REACTORS
330
2EA
102
}
330
2EA
100
AcDbProxyObject
 90
      499
 91
      504
 93
      218
310
46828000000000000000000000000000000000000000000000000000
  0
ACAD_PROXY_OBJECT
  5
307
102
{ACAD_REACTORS
330
2EA
102
}
330
2EA
100
AcDbProxyObject
 90
      499
 91
      504
 93
      218
310
46828000000000000000000000000000000000000000000000000000
  0
ACAD_PROXY_OBJECT
  5
305
102
{ACAD_REACTORS
330
2EA
102
}
330
2EA
100
AcDbProxyObject
 90
      499
 91
      504
 93
      218
310
46828000000000000000000000000000000000000000000000000000
  0
ACAD_PROXY_OBJECT
  5
306
102
{ACAD_REACTORS
330
2EA
102
}
330
2EA
100
AcDbProxyObject
 90
      499
 91
      504
 93
      218
310
46828000000000000000000000000000000000000000000000000000
  0
ACAD_PROXY_OBJECT
  5
303
102
{ACAD_REACTORS
330
2EA
102
}
330
2EA
100
AcDbProxyObject
 90
      499
 91
      504
 93
      218
310
46828000000000000000000000000000000000000000000000000000
  0
ACAD_PROXY_OBJECT
  5
300
102
{ACAD_REACTORS
330
2EA
102
}
330
2EA
100
AcDbProxyObject
 90
      499
 91
      504
 93
       90
310
429500400000000000000000
  0
ACAD_PROXY_OBJECT
  5
301
102
{ACAD_REACTORS
330
2EA
102
}
330
2EA
100
AcDbProxyObject
 90
      499
 91
      504
 93
       42
310
411180000000
  0
ACAD_PROXY_OBJECT
  5
2F5
102
{ACAD_REACTORS
330
2EA
102
}
330
2EA
100
AcDbProxyObject
 90
      499
 91
      504
 93
      354
310
4AC0400980079ED19051508C50CCCC8B514C0C4E4B4C4C510D4B4E4C8E508B4C0C10CC11118C8D4D9150CD1F40
  0
DICTIONARYVAR
  5
30F
102
{ACAD_REACTORS
330
30A
102
}
330
30A
100
DictionaryVariables
280
     0
  1
1:1
  0
DICTIONARYVAR
  5
30E
102
{ACAD_REACTORS
330
30A
102
}
330
30A
100
DictionaryVariables
280
     0
  1
80.000000
  0
DICTIONARYVAR
  5
30D
102
{ACAD_REACTORS
330
30A
102
}
330
30A
100
DictionaryVariables
280
     0
  1
5.000000
  0
ENDSEC
  0
EOF
