  0
SECTION
  2
HEADER
  9
$ACADVER
  1
AC1014
  9
$ACADMAINTVER
 70
     9
  9
$DWGCODEPAGE
  3
ANSI_1252
  9
$INSBASE
 10
0.0
 20
0.0
 30
0.0
  9
$EXTMIN
 10
-39.0
 20
-253.315674
 30
0.0
  9
$EXTMAX
 10
262.23877
 20
181.521423
 30
0.0
  9
$LIMMIN
 10
-39.0
 20
-253.315674
  9
$LIMMAX
 10
262.23877
 20
181.521423
  9
$ORTHOMODE
 70
     0
  9
$REGENMODE
 70
     1
  9
$FILLMODE
 70
     1
  9
$QTEXTMODE
 70
     0
  9
$MIRRTEXT
 70
     1
  9
$DRAGMODE
 70
     2
  9
$LTSCALE
 40
1.0
  9
$OSMODE
 70
    37
  9
$ATTMODE
 70
     1
  9
$TEXTSIZE
 40
2.5
  9
$TRACEWID
 40
1.0
  9
$TEXTSTYLE
  7
STANDARD
  9
$CLAYER
  8
0
  9
$CELTYPE
  6
BYLAYER
  9
$CECOLOR
 62
   256
  9
$CELTSCALE
 40
1.0
  9
$DELOBJ
 70
     1
  9
$DISPSILH
 70
     0
  9
$DIMSCALE
 40
1.0
  9
$DIMASZ
 40
2.5
  9
$DIMEXO
 40
0.625
  9
$DIMDLI
 40
3.75
  9
$DIMRND
 40
0.0
  9
$DIMDLE
 40
0.0
  9
$DIMEXE
 40
1.25
  9
$DIMTP
 40
0.0
  9
$DIMTM
 40
0.0
  9
$DIMTXT
 40
2.5
  9
$DIMCEN
 40
2.5
  9
$DIMTSZ
 40
0.0
  9
$DIMTOL
 70
     0
  9
$DIMLIM
 70
     0
  9
$DIMTIH
 70
     0
  9
$DIMTOH
 70
     0
  9
$DIMSE1
 70
     0
  9
$DIMSE2
 70
     0
  9
$DIMTAD
 70
     1
  9
$DIMZIN
 70
     8
  9
$DIMBLK
  1

  9
$DIMASO
 70
     1
  9
$DIMSHO
 70
     1
  9
$DIMPOST
  1

  9
$DIMAPOST
  1

  9
$DIMALT
 70
     0
  9
$DIMALTD
 70
     3
  9
$DIMALTF
 40
0.03937
  9
$DIMLFAC
 40
1.0
  9
$DIMTOFL
 70
     1
  9
$DIMTVP
 40
0.0
  9
$DIMTIX
 70
     0
  9
$DIMSOXD
 70
     0
  9
$DIMSAH
 70
     0
  9
$DIMBLK1
  1

  9
$DIMBLK2
  1

  9
$DIMSTYLE
  2
ISO-25
  9
$DIMCLRD
 70
     0
  9
$DIMCLRE
 70
     0
  9
$DIMCLRT
 70
     0
  9
$DIMTFAC
 40
1.0
  9
$DIMGAP
 40
0.625
  9
$DIMJUST
 70
     0
  9
$DIMSD1
 70
     0
  9
$DIMSD2
 70
     0
  9
$DIMTOLJ
 70
     0
  9
$DIMTZIN
 70
     8
  9
$DIMALTZ
 70
     0
  9
$DIMALTTZ
 70
     0
  9
$DIMFIT
 70
     3
  9
$DIMUPT
 70
     0
  9
$DIMUNIT
 70
     2
  9
$DIMDEC
 70
     2
  9
$DIMTDEC
 70
     2
  9
$DIMALTU
 70
     2
  9
$DIMALTTD
 70
     3
  9
$DIMTXSTY
  7
STANDARD
  9
$DIMAUNIT
 70
     0
  9
$LUNITS
 70
     2
  9
$LUPREC
 70
     4
  9
$SKETCHINC
 40
1.0
  9
$FILLETRAD
 40
10.0
  9
$AUNITS
 70
     0
  9
$AUPREC
 70
     0
  9
$MENU
  1
.
  9
$ELEVATION
 40
0.0
  9
$PELEVATION
 40
0.0
  9
$THICKNESS
 40
0.0
  9
$LIMCHECK
 70
     0
  9
$CHAMFERA
 40
10.0
  9
$CHAMFERB
 40
10.0
  9
$CHAMFERC
 40
20.0
  9
$CHAMFERD
 40
0.0
  9
$SKPOLY
 70
     0
  9
$TDCREATE
 40
2456248.295067766
  9
$TDUPDATE
 40
2456248.295067778
  9
$TDINDWG
 40
0.0000000116
  9
$TDUSRTIMER
 40
0.0000000116
  9
$USRTIMER
 70
     1
  9
$ANGBASE
 50
0.0
  9
$ANGDIR
 70
     0
  9
$PDMODE
 70
     0
  9
$PDSIZE
 40
0.0
  9
$PLINEWID
 40
0.0
  9
$COORDS
 70
     1
  9
$SPLFRAME
 70
     0
  9
$SPLINETYPE
 70
     6
  9
$SPLINESEGS
 70
     8
  9
$ATTDIA
 70
     0
  9
$ATTREQ
 70
     1
  9
$HANDLING
 70
     1
  9
$HANDSEED
  5
172
  9
$SURFTAB1
 70
     6
  9
$SURFTAB2
 70
     6
  9
$SURFTYPE
 70
     6
  9
$SURFU
 70
     6
  9
$SURFV
 70
     6
  9
$UCSNAME
  2

  9
$UCSORG
 10
0.0
 20
0.0
 30
0.0
  9
$UCSXDIR
 10
1.0
 20
0.0
 30
0.0
  9
$UCSYDIR
 10
0.0
 20
1.0
 30
0.0
  9
$PUCSNAME
  2

  9
$PUCSORG
 10
0.0
 20
0.0
 30
0.0
  9
$PUCSXDIR
 10
1.0
 20
0.0
 30
0.0
  9
$PUCSYDIR
 10
0.0
 20
1.0
 30
0.0
  9
$USERI1
 70
     0
  9
$USERI2
 70
     0
  9
$USERI3
 70
     0
  9
$USERI4
 70
     0
  9
$USERI5
 70
     0
  9
$USERR1
 40
0.0
  9
$USERR2
 40
0.0
  9
$USERR3
 40
0.0
  9
$USERR4
 40
0.0
  9
$USERR5
 40
0.0
  9
$WORLDVIEW
 70
     1
  9
$SHADEDGE
 70
     3
  9
$SHADEDIF
 70
    70
  9
$TILEMODE
 70
     1
  9
$MAXACTVP
 70
    64
  9
$PINSBASE
 10
0.0
 20
0.0
 30
0.0
  9
$PLIMCHECK
 70
     0
  9
$PEXTMIN
 10
1.000000E+20
 20
1.000000E+20
 30
1.000000E+20
  9
$PEXTMAX
 10
-1.000000E+20
 20
-1.000000E+20
 30
-1.000000E+20
  9
$PLIMMIN
 10
0.0
 20
0.0
  9
$PLIMMAX
 10
420.0
 20
297.0
  9
$UNITMODE
 70
     0
  9
$VISRETAIN
 70
     1
  9
$PLINEGEN
 70
     0
  9
$PSLTSCALE
 70
     1
  9
$TREEDEPTH
 70
  3020
  9
$PICKSTYLE
 70
     1
  9
$CMLSTYLE
  2
STANDARD
  9
$CMLJUST
 70
     0
  9
$CMLSCALE
 40
20.0
  9
$PROXYGRAPHICS
 70
     1
  9
$MEASUREMENT
 70
     1
  0
ENDSEC
  0
SECTION
  2
CLASSES
  0
CLASS
  1
ACDBDICTIONARYWDFLT
  2
AcDbDictionaryWithDefault
  3
ObjectDBX Classes
 90
        0
280
     0
281
     0
  0
CLASS
  1
VISUALSTYLE
  2
AcDbVisualStyle
  3
ObjectDBX Classes
 90
     4095
280
     0
281
     0
  0
CLASS
  1
SCALE
  2
AcDbScale
  3
ObjectDBX Classes
 90
     1153
280
     0
281
     0
  0
CLASS
  1
DICTIONARYVAR
  2
AcDbDictionaryVar
  3
ObjectDBX Classes
 90
        0
280
     0
281
     0
  0
CLASS
  1
XRECORD
  2
AcDbXrecord
  3
AutoCAD 2000
 90
        0
280
     0
281
     0
  0
CLASS
  1
LWPOLYLINE
  2
AcDbPolyline
  3
AutoCAD 2000
 90
        0
280
     0
281
     1
  0
CLASS
  1
HATCH
  2
AcDbHatch
  3
AutoCAD 2000
 90
        0
280
     0
281
     1
  0
CLASS
  1
ACDBPLACEHOLDER
  2
AcDbPlaceHolder
  3
ObjectDBX Classes
 90
        0
280
     0
281
     0
  0
CLASS
  1
LAYOUT
  2
AcDbLayout
  3
ObjectDBX Classes
 90
        0
280
     0
281
     0
  0
ENDSEC
  0
SECTION
  2
TABLES
  0
TABLE
  2
VPORT
  5
8
330
0
100
AcDbSymbolTable
 70
     1
  0
VPORT
  5
29
330
8
100
AcDbSymbolTableRecord
100
AcDbViewportTableRecord
  2
*ACTIVE
 70
     0
 10
0.0
 20
0.0
 11
1.0
 21
1.0
 12
344.186916
 22
148.5
 13
0.0
 23
0.0
 14
10.0
 24
10.0
 15
10.0
 25
10.0
 16
0.0
 26
0.0
 36
1.0
 17
0.0
 27
0.0
 37
0.0
 40
297.0
 41
1.972973
 42
50.0
 43
0.0
 44
0.0
 50
0.0
 51
0.0
 71
     0
 72
   100
 73
     1
 74
     3
 75
     0
 76
     0
 77
     0
 78
     0
  0
ENDTAB
  0
TABLE
  2
LTYPE
  5
5
330
0
100
AcDbSymbolTable
 70
     3
  0
LTYPE
  5
14
330
5
100
AcDbSymbolTableRecord
100
AcDbLinetypeTableRecord
  2
BYBLOCK
 70
     0
  3

 72
    65
 73
     0
 40
0.0
  0
LTYPE
  5
15
330
5
100
AcDbSymbolTableRecord
100
AcDbLinetypeTableRecord
  2
BYLAYER
 70
     0
  3

 72
    65
 73
     0
 40
0.0
  0
LTYPE
  5
16
330
5
100
AcDbSymbolTableRecord
100
AcDbLinetypeTableRecord
  2
CONTINUOUS
 70
     0
  3
Solid line
 72
    65
 73
     0
 40
0.0
  0
LTYPE
  5
3B
330
5
100
AcDbSymbolTableRecord
100
AcDbLinetypeTableRecord
  2
HIDDEN2
 70
     0
  3
Hidden (.5x) _ _ _ _ _ _ _ _ _ _ _ _ _ _ _ _ _ 
 72
    65
 73
     2
 40
4.7625
 49
3.175
 74
     0
 49
-1.5875
 74
     0
  0
LTYPE
  5
104
330
5
100
AcDbSymbolTableRecord
100
AcDbLinetypeTableRecord
  2
DASHDOT
 70
     0
  3
Dash dot __ . __ . __ . __ . __ . __ . __ . __
 72
    65
 73
     4
 40
25.4
 49
12.7
 74
     0
 49
-6.35
 74
     0
 49
0.0
 74
     0
 49
-6.35
 74
     0
  0
ENDTAB
  0
TABLE
  2
LAYER
  5
2
330
0
100
AcDbSymbolTable
 70
     2
  0
LAYER
  5
10
330
2
100
AcDbSymbolTableRecord
100
AcDbLayerTableRecord
  2
0
 70
     1
 62
    -1
  6
HIDDEN2
  0
LAYER
  5
3C
330
2
100
AcDbSymbolTableRecord
100
AcDbLayerTableRecord
  2
109
 70
     0
 62
     1
  6
HIDDEN2
  0
ENDTAB
  0
TABLE
  2
STYLE
  5
3
330
0
100
AcDbSymbolTable
 70
     3
  0
STYLE
  5
11
330
3
100
AcDbSymbolTableRecord
100
AcDbTextStyleTableRecord
  2
STANDARD
 70
     0
 40
0.0
 41
1.0
 50
0.0
 71
     0
 42
2.5
  3
txt
  4

  0
STYLE
  5
3D
330
3
100
AcDbSymbolTableRecord
100
AcDbTextStyleTableRecord
  2
DEFAULT
 70
     0
 40
0.0
 41
1.0
 50
0.0
 71
     0
 42
0.2
  3

  4

1001
ACAD
1000
txt
1071
        0
  0
STYLE
  5
3E
330
3
100
AcDbSymbolTableRecord
100
AcDbTextStyleTableRecord
  2
FSB
 70
     0
 40
0.0
 41
1.0
 50
0.0
 71
     0
 42
0.2
  3

  4

1001
ACAD
1000
Arial
1071
        0
  0
ENDTAB
  0
TABLE
  2
VIEW
  5
6
330
0
100
AcDbSymbolTable
 70
     0
  0
ENDTAB
  0
TABLE
  2
UCS
  5
7
330
0
100
AcDbSymbolTable
 70
     0
  0
ENDTAB
  0
TABLE
  2
APPID
  5
9
330
0
100
AcDbSymbolTable
 70
     1
  0
APPID
  5
12
330
9
100
AcDbSymbolTableRecord
100
AcDbRegAppTableRecord
  2
ACAD
 70
     0
  0
ENDTAB
  0
TABLE
  2
DIMSTYLE
  5
A
330
0
100
AcDbSymbolTable
 70
     4
  0
DIMSTYLE
105
27
330
A
100
AcDbSymbolTableRecord
100
AcDbDimStyleTableRecord
  2
ISO-25
 70
     0
  3

  4

  5

  6

  7

 40
1.0
 41
2.5
 42
0.625
 43
3.75
 44
1.25
 45
0.0
 46
0.0
 47
0.0
 48
0.0
140
2.5
141
2.5
142
0.0
143
0.03937
144
1.0
145
0.0
146
1.0
147
0.625
 71
     0
 72
     0
 73
     0
 74
     0
 75
     0
 76
     0
 77
     1
 78
     8
170
     0
171
     3
172
     1
173
     0
174
     0
175
     0
176
     0
177
     0
178
     0
270
     2
271
     2
272
     2
273
     2
274
     3
340
11
275
     0
280
     0
281
     0
282
     0
283
     0
284
     8
285
     0
286
     0
287
     3
288
     0
  0
DIMSTYLE
105
3F
330
A
100
AcDbSymbolTableRecord
100
AcDbDimStyleTableRecord
  2
DEFAULT
 70
     0
  3
<>
  4

  5
CLOSED
  6

  7

 40
1.0
 41
4.375
 42
1.05
 43
0.38
 44
2.1
 45
0.0
 46
0.0
 47
0.0
 48
0.0
140
3.5
141
0.09
142
0.0
143
25.4
144
1.0
145
0.0
146
0.4
147
1.75
 71
     0
 72
     0
 73
     0
 74
     0
 75
     0
 76
     0
 77
     1
 78
     8
170
     0
171
     2
172
     0
173
     0
174
     0
175
     0
176
     0
177
     0
178
     1
270
     2
271
     2
272
     3
273
     2
274
     2
340
3D
275
     0
280
     0
281
     0
282
     0
283
     1
284
     8
285
     0
286
     0
287
     3
288
     0
  0
DIMSTYLE
105
47
330
A
100
AcDbSymbolTableRecord
100
AcDbDimStyleTableRecord
  2
FSB
 70
     0
  3
<>
  4

  5
CLOSED
  6

  7

 40
1.0
 41
4.375
 42
1.05
 43
0.38
 44
2.1
 45
0.0
 46
0.0
 47
0.0
 48
0.0
140
3.5
141
0.09
142
0.0
143
25.4
144
1.0
145
0.0
146
0.7
147
1.05
 71
     0
 72
     0
 73
     0
 74
     0
 75
     0
 76
     0
 77
     1
 78
     8
170
     0
171
     2
172
     0
173
     0
174
     0
175
     0
176
     1
177
     1
178
     2
270
     2
271
     2
272
     3
273
     2
274
     2
340
3E
275
     0
280
     0
281
     0
282
     0
283
     1
284
     8
285
     0
286
     0
287
     3
288
     0
  0
DIMSTYLE
105
48
330
A
100
AcDbSymbolTableRecord
100
AcDbDimStyleTableRecord
  2
KOPIE_VON_FSB
 70
     0
  3
<>
  4

  5
CLOSED
  6

  7

 40
1.0
 41
4.375
 42
1.05
 43
0.38
 44
2.1
 45
0.0
 46
0.0
 47
0.0
 48
0.0
140
3.5
141
0.09
142
0.0
143
25.4
144
1.0
145
0.0
146
0.7
147
1.05
 71
     0
 72
     0
 73
     0
 74
     0
 75
     0
 76
     0
 77
     1
 78
     8
170
     0
171
     2
172
     0
173
     0
174
     0
175
     0
176
     1
177
     1
178
     2
270
     2
271
     2
272
     3
273
     2
274
     2
340
3E
275
     0
280
     0
281
     0
282
     0
283
     1
284
     8
285
     0
286
     0
287
     3
288
     0
  0
ENDTAB
  0
TABLE
  2
BLOCK_RECORD
  5
1
330
0
100
AcDbSymbolTable
 70
     2
  0
BLOCK_RECORD
  5
1F
330
1
100
AcDbSymbolTableRecord
100
AcDbBlockTableRecord
  2
*MODEL_SPACE
  0
BLOCK_RECORD
  5
1B
330
1
100
AcDbSymbolTableRecord
100
AcDbBlockTableRecord
  2
*PAPER_SPACE
  0
BLOCK_RECORD
  5
40
330
1
100
AcDbSymbolTableRecord
100
AcDbBlockTableRecord
  2
_CLOSED
  0
ENDTAB
  0
ENDSEC
  0
SECTION
  2
BLOCKS
  0
BLOCK
  5
20
330
1F
100
AcDbEntity
  8
0
100
AcDbBlockBegin
  2
*MODEL_SPACE
 70
     0
 10
0.0
 20
0.0
 30
0.0
  3
*MODEL_SPACE
  1

  0
ENDBLK
  5
21
330
1F
100
AcDbEntity
  8
0
100
AcDbBlockEnd
  0
BLOCK
  5
1C
330
1B
100
AcDbEntity
 67
     1
  8
0
100
AcDbBlockBegin
  2
*PAPER_SPACE
 70
     0
 10
0.0
 20
0.0
 30
0.0
  3
*PAPER_SPACE
  1

  0
ENDBLK
  5
1D
330
1B
100
AcDbEntity
 67
     1
  8
0
100
AcDbBlockEnd
  0
BLOCK
  5
41
330
40
100
AcDbEntity
  8
0
100
AcDbBlockBegin
  2
_CLOSED
 70
     0
 10
0.0
 20
0.0
 30
0.0
  3
_CLOSED
  1

  0
LINE
  5
43
330
40
100
AcDbEntity
  8
0
  6
BYBLOCK
 62
     0
100
AcDbLine
 10
-1.0
 20
0.166667
 30
0.0
 11
0.0
 21
0.0
 31
0.0
  0
LINE
  5
44
330
40
100
AcDbEntity
  8
0
  6
BYBLOCK
 62
     0
100
AcDbLine
 10
0.0
 20
0.0
 30
0.0
 11
-1.0
 21
-0.166667
 31
0.0
  0
LINE
  5
45
330
40
100
AcDbEntity
  8
0
  6
BYBLOCK
 62
     0
100
AcDbLine
 10
-1.0
 20
0.166667
 30
0.0
 11
-1.0
 21
-0.166667
 31
0.0
  0
LINE
  5
46
330
40
100
AcDbEntity
  8
0
  6
BYBLOCK
 62
     0
100
AcDbLine
 10
0.0
 20
0.0
 30
0.0
 11
-1.0
 21
0.0
 31
0.0
  0
ENDBLK
  5
42
330
40
100
AcDbEntity
  8
0
100
AcDbBlockEnd
  0
ENDSEC
  0
SECTION
  2
ENTITIES
  0
TEXT
  5
6B
330
1F
100
AcDbEntity
  8
0
  6
CONTINUOUS
 62
     2
 60
     1
100
AcDbText
 10
84.62668
 20
158.236694
 30
0.0
 40
3.5
  1
a
  7
FSB
 72
     1
 11
85.98468
 21
161.736694
 31
0.0
100
AcDbText
 73
     3
  0
TEXT
  5
6C
330
1F
100
AcDbEntity
  8
0
  6
CONTINUOUS
 62
     2
 60
     1
100
AcDbText
 10
84.626673
 20
67.17234
 30
0.0
 40
3.5
  1
b
  7
FSB
 72
     1
 11
85.984673
 21
70.67234
 31
0.0
100
AcDbText
 73
     3
  0
TEXT
  5
6D
330
1F
100
AcDbEntity
  8
0
  6
CONTINUOUS
 62
     2
 60
     1
100
AcDbText
 10
195.117428
 20
158.236694
 30
0.0
 40
3.5
  1
c
  7
FSB
 72
     1
 11
196.338928
 21
161.736694
 31
0.0
100
AcDbText
 73
     3
  0
CIRCLE
  5
6E
330
1F
100
AcDbEntity
  8
109
  6
CONTINUOUS
 62
     7
100
AcDbCircle
 10
0.0
 20
0.0
 30
0.0
 40
26.55804976914894
  0
CIRCLE
  5
6F
330
1F
100
AcDbEntity
  8
109
  6
CONTINUOUS
 62
     7
100
AcDbCircle
 10
0.0
 20
0.0
 30
0.0
 40
37.5
  0
CIRCLE
  5
70
330
1F
100
AcDbEntity
  8
109
  6
CONTINUOUS
 62
     7
100
AcDbCircle
 10
0.0
 20
0.0
 30
0.0
 40
27.0
  0
LINE
  5
71
330
1F
100
AcDbEntity
  8
109
  6
CONTINUOUS
 62
     7
100
AcDbLine
 10
-34.000004
 20
-232.999999
 30
0.0
 11
-34.561052
 21
-233.998134
 31
0.0
  0
LINE
  5
72
330
1F
100
AcDbEntity
  8
109
  6
CONTINUOUS
 62
     7
100
AcDbLine
 10
33.999996
 20
-232.999999
 30
0.0
 11
-34.000004
 21
-232.999999
 31
0.0
  0
LINE
  5
73
330
1F
100
AcDbEntity
  8
109
  6
CONTINUOUS
 62
     7
100
AcDbLine
 10
-34.545816
 20
-233.998134
 30
0.0
 11
-34.560947
 21
-233.998134
 31
0.0
  0
LINE
  5
74
330
1F
100
AcDbEntity
  8
109
  6
CONTINUOUS
 62
     7
100
AcDbLine
 10
-31.523487
 20
-233.998134
 30
0.0
 11
-32.308858
 21
-233.998134
 31
0.0
  0
LINE
  5
75
330
1F
100
AcDbEntity
  8
109
  6
CONTINUOUS
 62
     7
100
AcDbLine
 10
-23.701993
 20
-233.998134
 30
0.0
 11
-25.15317
 21
-233.998134
 31
0.0
  0
LINE
  5
76
330
1F
100
AcDbEntity
  8
109
  6
CONTINUOUS
 62
     7
100
AcDbLine
 10
-12.272087
 20
-233.998134
 30
0.0
 11
-14.168141
 21
-233.998134
 31
0.0
  0
LINE
  5
77
330
1F
100
AcDbEntity
  8
109
  6
CONTINUOUS
 62
     7
100
AcDbLine
 10
1.026133
 20
-233.998134
 30
0.0
 11
-1.026141
 21
-233.998134
 31
0.0
  0
LINE
  5
78
330
1F
100
AcDbEntity
  8
109
  6
CONTINUOUS
 62
     7
100
AcDbLine
 10
14.168133
 20
-233.998134
 30
0.0
 11
12.272079
 21
-233.998134
 31
0.0
  0
LINE
  5
79
330
1F
100
AcDbEntity
  8
109
  6
CONTINUOUS
 62
     7
100
AcDbLine
 10
25.153163
 20
-233.998134
 30
0.0
 11
23.701986
 21
-233.998134
 31
0.0
  0
LINE
  5
7A
330
1F
100
AcDbEntity
  8
109
  6
CONTINUOUS
 62
     7
100
AcDbLine
 10
32.30885
 20
-233.998134
 30
0.0
 11
31.523479
 21
-233.998134
 31
0.0
  0
LINE
  5
7B
330
1F
100
AcDbEntity
  8
109
  6
CONTINUOUS
 62
     7
100
AcDbLine
 10
34.560939
 20
-233.998134
 30
0.0
 11
34.545808
 21
-233.998134
 31
0.0
  0
LINE
  5
7C
330
1F
100
AcDbEntity
  8
109
  6
CONTINUOUS
 62
     7
100
AcDbLine
 10
34.509125
 20
-233.932811
 30
0.0
 11
34.789412
 21
-245.0
 31
0.0
  0
LINE
  5
7D
330
1F
100
AcDbEntity
  8
109
  6
CONTINUOUS
 62
     7
100
AcDbLine
 10
31.490243
 20
-233.932812
 30
0.0
 11
31.638291
 21
-245.000001
 31
0.0
  0
LINE
  5
7E
330
1F
100
AcDbEntity
  8
109
  6
CONTINUOUS
 62
     7
100
AcDbLine
 10
23.677256
 20
-233.932812
 30
0.0
 11
23.670527
 21
-245.000001
 31
0.0
  0
LINE
  5
7F
330
1F
100
AcDbEntity
  8
109
  6
CONTINUOUS
 62
     7
100
AcDbLine
 10
12.259621
 20
-233.932812
 30
0.0
 11
12.099138
 21
-245.000002
 31
0.0
  0
LINE
  5
80
330
1F
100
AcDbEntity
  8
109
  6
CONTINUOUS
 62
     7
100
AcDbLine
 10
-12.259629
 20
-233.932812
 30
0.0
 11
-12.099146
 21
-245.000002
 31
0.0
  0
LINE
  5
81
330
1F
100
AcDbEntity
  8
109
  6
CONTINUOUS
 62
     7
100
AcDbLine
 10
-23.677264
 20
-233.932812
 30
0.0
 11
-23.670534
 21
-245.000001
 31
0.0
  0
LINE
  5
82
330
1F
100
AcDbEntity
  8
109
  6
CONTINUOUS
 62
     7
100
AcDbLine
 10
-31.49025
 20
-233.932812
 30
0.0
 11
-31.638299
 21
-245.000001
 31
0.0
  0
LINE
  5
83
330
1F
100
AcDbEntity
  8
109
  6
CONTINUOUS
 62
     7
100
AcDbLine
 10
-34.509132
 20
-233.932811
 30
0.0
 11
-34.78942
 21
-245.0
 31
0.0
  0
LINE
  5
84
330
1F
100
AcDbEntity
  8
109
  6
CONTINUOUS
 62
     7
100
AcDbLine
 10
34.509125
 20
-233.932811
 30
0.0
 11
34.545808
 21
-233.998134
 31
0.0
  0
LINE
  5
85
330
1F
100
AcDbEntity
  8
109
  6
CONTINUOUS
 62
     7
100
AcDbLine
 10
32.274305
 20
-233.932812
 30
0.0
 11
34.509125
 21
-233.932811
 31
0.0
  0
LINE
  5
86
330
1F
100
AcDbEntity
  8
109
  6
CONTINUOUS
 62
     7
100
AcDbLine
 10
32.274305
 20
-233.932812
 30
0.0
 11
32.30885
 21
-233.998135
 31
0.0
  0
LINE
  5
87
330
1F
100
AcDbEntity
  8
109
  6
CONTINUOUS
 62
     7
100
AcDbLine
 10
31.490243
 20
-233.932812
 30
0.0
 11
31.523479
 21
-233.998135
 31
0.0
  0
LINE
  5
88
330
1F
100
AcDbEntity
  8
109
  6
CONTINUOUS
 62
     7
100
AcDbLine
 10
31.490243
 20
-233.932812
 30
0.0
 11
25.126014
 21
-233.932812
 31
0.0
  0
LINE
  5
89
330
1F
100
AcDbEntity
  8
109
  6
CONTINUOUS
 62
     7
100
AcDbLine
 10
25.126014
 20
-233.932812
 30
0.0
 11
25.153163
 21
-233.998135
 31
0.0
  0
LINE
  5
8A
330
1F
100
AcDbEntity
  8
109
  6
CONTINUOUS
 62
     7
100
AcDbLine
 10
23.677256
 20
-233.932812
 30
0.0
 11
23.701986
 21
-233.998135
 31
0.0
  0
LINE
  5
8B
330
1F
100
AcDbEntity
  8
109
  6
CONTINUOUS
 62
     7
100
AcDbLine
 10
23.677256
 20
-233.932812
 30
0.0
 11
14.152515
 21
-233.932812
 31
0.0
  0
LINE
  5
8C
330
1F
100
AcDbEntity
  8
109
  6
CONTINUOUS
 62
     7
100
AcDbLine
 10
14.168133
 20
-233.998136
 30
0.0
 11
14.152515
 21
-233.932812
 31
0.0
  0
LINE
  5
8D
330
1F
100
AcDbEntity
  8
109
  6
CONTINUOUS
 62
     7
100
AcDbLine
 10
12.259621
 20
-233.932812
 30
0.0
 11
12.272079
 21
-233.998136
 31
0.0
  0
LINE
  5
8E
330
1F
100
AcDbEntity
  8
109
  6
CONTINUOUS
 62
     7
100
AcDbLine
 10
1.024423
 20
-233.932813
 30
0.0
 11
12.259621
 21
-233.932812
 31
0.0
  0
LINE
  5
8F
330
1F
100
AcDbEntity
  8
109
  6
CONTINUOUS
 62
     7
100
AcDbLine
 10
-12.259629
 20
-233.932812
 30
0.0
 11
-1.02443
 21
-233.932813
 31
0.0
  0
LINE
  5
90
330
1F
100
AcDbEntity
  8
109
  6
CONTINUOUS
 62
     7
100
AcDbLine
 10
-12.259629
 20
-233.932812
 30
0.0
 11
-12.272087
 21
-233.998136
 31
0.0
  0
LINE
  5
91
330
1F
100
AcDbEntity
  8
109
  6
CONTINUOUS
 62
     7
100
AcDbLine
 10
-14.152522
 20
-233.932812
 30
0.0
 11
-14.168141
 21
-233.998136
 31
0.0
  0
LINE
  5
92
330
1F
100
AcDbEntity
  8
109
  6
CONTINUOUS
 62
     7
100
AcDbLine
 10
-14.152522
 20
-233.932812
 30
0.0
 11
-23.677264
 21
-233.932812
 31
0.0
  0
LINE
  5
93
330
1F
100
AcDbEntity
  8
109
  6
CONTINUOUS
 62
     7
100
AcDbLine
 10
-23.677264
 20
-233.932812
 30
0.0
 11
-23.701993
 21
-233.998135
 31
0.0
  0
LINE
  5
94
330
1F
100
AcDbEntity
  8
109
  6
CONTINUOUS
 62
     7
100
AcDbLine
 10
-25.126022
 20
-233.932812
 30
0.0
 11
-25.15317
 21
-233.998135
 31
0.0
  0
LINE
  5
95
330
1F
100
AcDbEntity
  8
109
  6
CONTINUOUS
 62
     7
100
AcDbLine
 10
-31.49025
 20
-233.932812
 30
0.0
 11
-25.126022
 21
-233.932812
 31
0.0
  0
LINE
  5
96
330
1F
100
AcDbEntity
  8
109
  6
CONTINUOUS
 62
     7
100
AcDbLine
 10
-31.49025
 20
-233.932812
 30
0.0
 11
-31.523487
 21
-233.998135
 31
0.0
  0
LINE
  5
97
330
1F
100
AcDbEntity
  8
109
  6
CONTINUOUS
 62
     7
100
AcDbLine
 10
-32.274312
 20
-233.932812
 30
0.0
 11
-32.308858
 21
-233.998135
 31
0.0
  0
LINE
  5
98
330
1F
100
AcDbEntity
  8
109
  6
CONTINUOUS
 62
     7
100
AcDbLine
 10
-34.509132
 20
-233.932811
 30
0.0
 11
-32.274312
 21
-233.932812
 31
0.0
  0
LINE
  5
99
330
1F
100
AcDbEntity
  8
109
  6
CONTINUOUS
 62
     7
100
AcDbLine
 10
-34.509132
 20
-233.932811
 30
0.0
 11
-34.545816
 21
-233.998134
 31
0.0
  0
LINE
  5
9A
330
1F
100
AcDbEntity
  8
109
  6
CONTINUOUS
 62
     7
100
AcDbLine
 10
34.545808
 20
-233.998134
 30
0.0
 11
35.209429
 21
-245.0
 31
0.0
  0
LINE
  5
9B
330
1F
100
AcDbEntity
  8
109
  6
CONTINUOUS
 62
     7
100
AcDbLine
 10
32.30885
 20
-233.998135
 30
0.0
 11
33.032205
 21
-245.000001
 31
0.0
  0
LINE
  5
9C
330
1F
100
AcDbEntity
  8
109
  6
CONTINUOUS
 62
     7
100
AcDbLine
 10
31.523479
 20
-233.998135
 30
0.0
 11
32.026336
 21
-245.000001
 31
0.0
  0
LINE
  5
9D
330
1F
100
AcDbEntity
  8
109
  6
CONTINUOUS
 62
     7
100
AcDbLine
 10
25.153163
 20
-233.998135
 30
0.0
 11
25.826126
 21
-245.000001
 31
0.0
  0
LINE
  5
9E
330
1F
100
AcDbEntity
  8
109
  6
CONTINUOUS
 62
     7
100
AcDbLine
 10
23.701986
 20
-233.998135
 30
0.0
 11
23.967523
 21
-245.000001
 31
0.0
  0
LINE
  5
9F
330
1F
100
AcDbEntity
  8
109
  6
CONTINUOUS
 62
     7
100
AcDbLine
 10
14.168133
 20
-233.998136
 30
0.0
 11
14.688254
 21
-245.000002
 31
0.0
  0
LINE
  5
A0
330
1F
100
AcDbEntity
  8
109
  6
CONTINUOUS
 62
     7
100
AcDbLine
 10
12.272079
 20
-233.998136
 30
0.0
 11
12.259871
 21
-245.000002
 31
0.0
  0
LINE
  5
A1
330
1F
100
AcDbEntity
  8
109
  6
CONTINUOUS
 62
     7
100
AcDbLine
 10
-12.272087
 20
-233.998136
 30
0.0
 11
-12.259879
 21
-245.000002
 31
0.0
  0
LINE
  5
A2
330
1F
100
AcDbEntity
  8
109
  6
CONTINUOUS
 62
     7
100
AcDbLine
 10
-14.168141
 20
-233.998136
 30
0.0
 11
-14.688261
 21
-245.000002
 31
0.0
  0
LINE
  5
A3
330
1F
100
AcDbEntity
  8
109
  6
CONTINUOUS
 62
     7
100
AcDbLine
 10
-23.701993
 20
-233.998135
 30
0.0
 11
-23.967531
 21
-245.000001
 31
0.0
  0
LINE
  5
A4
330
1F
100
AcDbEntity
  8
109
  6
CONTINUOUS
 62
     7
100
AcDbLine
 10
-25.15317
 20
-233.998135
 30
0.0
 11
-25.826134
 21
-245.000001
 31
0.0
  0
LINE
  5
A5
330
1F
100
AcDbEntity
  8
109
  6
CONTINUOUS
 62
     7
100
AcDbLine
 10
-31.523487
 20
-233.998135
 30
0.0
 11
-32.026343
 21
-245.000001
 31
0.0
  0
LINE
  5
A6
330
1F
100
AcDbEntity
  8
109
  6
CONTINUOUS
 62
     7
100
AcDbLine
 10
-32.308858
 20
-233.998135
 30
0.0
 11
-33.032212
 21
-245.000001
 31
0.0
  0
LINE
  5
A7
330
1F
100
AcDbEntity
  8
109
  6
CONTINUOUS
 62
     7
100
AcDbLine
 10
-34.545816
 20
-233.998134
 30
0.0
 11
-35.209436
 21
-245.0
 31
0.0
  0
LINE
  5
A8
330
1F
100
AcDbEntity
  8
109
  6
CONTINUOUS
 62
     7
100
AcDbLine
 10
-34.549868
 20
-245.0
 30
0.0
 11
-34.462593
 21
-250.0
 31
0.0
  0
LINE
  5
A9
330
1F
100
AcDbEntity
  8
109
  6
CONTINUOUS
 62
     7
100
AcDbLine
 10
-34.561052
 20
-233.998134
 30
0.0
 11
-35.233955
 21
-245.0
 31
0.0
  0
LINE
  5
AA
330
1F
100
AcDbEntity
  8
109
  6
CONTINUOUS
 62
     7
100
AcDbLine
 10
34.561045
 20
-233.998134
 30
0.0
 11
35.233948
 21
-245.0
 31
0.0
  0
LINE
  5
AB
330
1F
100
AcDbEntity
  8
109
  6
CONTINUOUS
 62
     7
100
AcDbLine
 10
33.999996
 20
-232.999999
 30
0.0
 11
34.561045
 21
-233.998134
 31
0.0
  0
LINE
  5
AC
330
1F
100
AcDbEntity
  8
109
  6
CONTINUOUS
 62
     7
100
AcDbLine
 10
34.54986
 20
-245.0
 30
0.0
 11
34.462585
 21
-250.0
 31
0.0
  0
LINE
  5
AD
330
1F
100
AcDbEntity
  8
109
  6
CONTINUOUS
 62
     7
100
AcDbLine
 10
-37.500004
 20
-250.0
 30
0.0
 11
-37.500004
 21
-252.0
 31
0.0
  0
LINE
  5
AE
330
1F
100
AcDbEntity
  8
109
  6
CONTINUOUS
 62
     7
100
AcDbLine
 10
37.499996
 20
-250.0
 30
0.0
 11
37.499996
 21
-252.0
 31
0.0
  0
LINE
  5
AF
330
1F
100
AcDbEntity
  8
109
  6
CONTINUOUS
 62
     7
100
AcDbLine
 10
245.000002
 20
-31.638295
 30
0.0
 11
245.000002
 21
-32.02634
 31
0.0
  0
LINE
  5
B0
330
1F
100
AcDbEntity
  8
109
  6
CONTINUOUS
 62
     7
100
AcDbLine
 10
245.000002
 20
32.02634
 30
0.0
 11
245.000002
 21
31.638295
 31
0.0
  0
LINE
  5
B1
330
1F
100
AcDbEntity
  8
109
  6
CONTINUOUS
 62
     7
100
AcDbLine
 10
245.000002
 20
23.967527
 30
0.0
 11
245.000002
 21
23.67053
 31
0.0
  0
LINE
  5
B2
330
1F
100
AcDbEntity
  8
109
  6
CONTINUOUS
 62
     7
100
AcDbLine
 10
245.000003
 20
12.259875
 30
0.0
 11
245.000003
 21
12.099142
 31
0.0
  0
LINE
  5
B3
330
1F
100
AcDbEntity
  8
109
  6
CONTINUOUS
 62
     7
100
AcDbLine
 10
245.000003
 20
-12.099142
 30
0.0
 11
245.000003
 21
-12.259875
 31
0.0
  0
LINE
  5
B4
330
1F
100
AcDbEntity
  8
109
  6
CONTINUOUS
 62
     7
100
AcDbLine
 10
245.000002
 20
-23.67053
 30
0.0
 11
245.000002
 21
-23.967527
 31
0.0
  0
LINE
  5
B5
330
1F
100
AcDbEntity
  8
109
  6
CONTINUOUS
 62
     7
100
AcDbLine
 10
233.998135
 20
12.272083
 30
0.0
 11
233.998135
 21
14.168137
 31
0.0
  0
LINE
  5
B6
330
1F
100
AcDbEntity
  8
109
  6
CONTINUOUS
 62
     7
100
AcDbLine
 10
233.998135
 20
23.701989
 30
0.0
 11
233.998135
 21
25.153166
 31
0.0
  0
LINE
  5
B7
330
1F
100
AcDbEntity
  8
109
  6
CONTINUOUS
 62
     7
100
AcDbLine
 10
233.998135
 20
31.523483
 30
0.0
 11
233.998135
 21
32.308854
 31
0.0
  0
LINE
  5
B8
330
1F
100
AcDbEntity
  8
109
  6
CONTINUOUS
 62
     7
100
AcDbLine
 10
233.998135
 20
34.545812
 30
0.0
 11
233.998135
 21
34.560943
 31
0.0
  0
LINE
  5
B9
330
1F
100
AcDbEntity
  8
109
  6
CONTINUOUS
 62
     7
100
AcDbLine
 10
233.998135
 20
-34.560943
 30
0.0
 11
233.998135
 21
-34.545812
 31
0.0
  0
LINE
  5
BA
330
1F
100
AcDbEntity
  8
109
  6
CONTINUOUS
 62
     7
100
AcDbLine
 10
233.998135
 20
-32.308854
 30
0.0
 11
233.998135
 21
-31.523483
 31
0.0
  0
LINE
  5
BB
330
1F
100
AcDbEntity
  8
109
  6
CONTINUOUS
 62
     7
100
AcDbLine
 10
233.998135
 20
-25.153166
 30
0.0
 11
233.998135
 21
-23.701989
 31
0.0
  0
LINE
  5
BC
330
1F
100
AcDbEntity
  8
109
  6
CONTINUOUS
 62
     7
100
AcDbLine
 10
233.998135
 20
-14.168137
 30
0.0
 11
233.998135
 21
-12.272083
 31
0.0
  0
LINE
  5
BD
330
1F
100
AcDbEntity
  8
109
  6
CONTINUOUS
 62
     7
100
AcDbLine
 10
233.932813
 20
-31.490247
 30
0.0
 11
245.000002
 21
-31.638295
 31
0.0
  0
LINE
  5
BE
330
1F
100
AcDbEntity
  8
109
  6
CONTINUOUS
 62
     7
100
AcDbLine
 10
233.932812
 20
-34.509129
 30
0.0
 11
245.000001
 21
-34.789416
 31
0.0
  0
LINE
  5
BF
330
1F
100
AcDbEntity
  8
109
  6
CONTINUOUS
 62
     7
100
AcDbLine
 10
233.932812
 20
34.509129
 30
0.0
 11
245.000001
 21
34.789416
 31
0.0
  0
LINE
  5
C0
330
1F
100
AcDbEntity
  8
109
  6
CONTINUOUS
 62
     7
100
AcDbLine
 10
233.932813
 20
31.490247
 30
0.0
 11
245.000002
 21
31.638295
 31
0.0
  0
LINE
  5
C1
330
1F
100
AcDbEntity
  8
109
  6
CONTINUOUS
 62
     7
100
AcDbLine
 10
233.932813
 20
23.67726
 30
0.0
 11
245.000002
 21
23.67053
 31
0.0
  0
LINE
  5
C2
330
1F
100
AcDbEntity
  8
109
  6
CONTINUOUS
 62
     7
100
AcDbLine
 10
233.932813
 20
12.259625
 30
0.0
 11
245.000003
 21
12.099142
 31
0.0
  0
LINE
  5
C3
330
1F
100
AcDbEntity
  8
109
  6
CONTINUOUS
 62
     7
100
AcDbLine
 10
233.932813
 20
-12.259625
 30
0.0
 11
245.000003
 21
-12.099142
 31
0.0
  0
LINE
  5
C4
330
1F
100
AcDbEntity
  8
109
  6
CONTINUOUS
 62
     7
100
AcDbLine
 10
233.932813
 20
-23.67726
 30
0.0
 11
245.000002
 21
-23.67053
 31
0.0
  0
LINE
  5
C5
330
1F
100
AcDbEntity
  8
109
  6
CONTINUOUS
 62
     7
100
AcDbLine
 10
233.932813
 20
-31.490247
 30
0.0
 11
233.932813
 21
-25.126018
 31
0.0
  0
LINE
  5
C6
330
1F
100
AcDbEntity
  8
109
  6
CONTINUOUS
 62
     7
100
AcDbLine
 10
233.932813
 20
-31.490247
 30
0.0
 11
233.998136
 21
-31.523483
 31
0.0
  0
LINE
  5
C7
330
1F
100
AcDbEntity
  8
109
  6
CONTINUOUS
 62
     7
100
AcDbLine
 10
233.998136
 20
-32.308854
 30
0.0
 11
233.932813
 21
-32.274309
 31
0.0
  0
LINE
  5
C8
330
1F
100
AcDbEntity
  8
109
  6
CONTINUOUS
 62
     7
100
AcDbLine
 10
233.932812
 20
-34.509129
 30
0.0
 11
233.932813
 21
-32.274309
 31
0.0
  0
LINE
  5
C9
330
1F
100
AcDbEntity
  8
109
  6
CONTINUOUS
 62
     7
100
AcDbLine
 10
233.932812
 20
-34.509129
 30
0.0
 11
233.998135
 21
-34.545812
 31
0.0
  0
LINE
  5
CA
330
1F
100
AcDbEntity
  8
109
  6
CONTINUOUS
 62
     7
100
AcDbLine
 10
233.932812
 20
34.509129
 30
0.0
 11
233.998135
 21
34.545812
 31
0.0
  0
LINE
  5
CB
330
1F
100
AcDbEntity
  8
109
  6
CONTINUOUS
 62
     7
100
AcDbLine
 10
233.932813
 20
32.274309
 30
0.0
 11
233.932812
 21
34.509129
 31
0.0
  0
LINE
  5
CC
330
1F
100
AcDbEntity
  8
109
  6
CONTINUOUS
 62
     7
100
AcDbLine
 10
233.932813
 20
32.274309
 30
0.0
 11
233.998136
 21
32.308854
 31
0.0
  0
LINE
  5
CD
330
1F
100
AcDbEntity
  8
109
  6
CONTINUOUS
 62
     7
100
AcDbLine
 10
233.932813
 20
31.490247
 30
0.0
 11
233.998136
 21
31.523483
 31
0.0
  0
LINE
  5
CE
330
1F
100
AcDbEntity
  8
109
  6
CONTINUOUS
 62
     7
100
AcDbLine
 10
233.932813
 20
31.490247
 30
0.0
 11
233.932813
 21
25.126018
 31
0.0
  0
LINE
  5
CF
330
1F
100
AcDbEntity
  8
109
  6
CONTINUOUS
 62
     7
100
AcDbLine
 10
233.932813
 20
25.126018
 30
0.0
 11
233.998136
 21
25.153166
 31
0.0
  0
LINE
  5
D0
330
1F
100
AcDbEntity
  8
109
  6
CONTINUOUS
 62
     7
100
AcDbLine
 10
233.932813
 20
23.67726
 30
0.0
 11
233.998136
 21
23.701989
 31
0.0
  0
LINE
  5
D1
330
1F
100
AcDbEntity
  8
109
  6
CONTINUOUS
 62
     7
100
AcDbLine
 10
233.932813
 20
14.152518
 30
0.0
 11
233.932813
 21
23.67726
 31
0.0
  0
LINE
  5
D2
330
1F
100
AcDbEntity
  8
109
  6
CONTINUOUS
 62
     7
100
AcDbLine
 10
233.932813
 20
14.152518
 30
0.0
 11
233.998137
 21
14.168137
 31
0.0
  0
LINE
  5
D3
330
1F
100
AcDbEntity
  8
109
  6
CONTINUOUS
 62
     7
100
AcDbLine
 10
233.932813
 20
12.259625
 30
0.0
 11
233.998137
 21
12.272083
 31
0.0
  0
LINE
  5
D4
330
1F
100
AcDbEntity
  8
109
  6
CONTINUOUS
 62
     7
100
AcDbLine
 10
233.932814
 20
1.024427
 30
0.0
 11
233.932813
 21
12.259625
 31
0.0
  0
LINE
  5
D5
330
1F
100
AcDbEntity
  8
109
  6
CONTINUOUS
 62
     7
100
AcDbLine
 10
233.998137
 20
-1.026137
 30
0.0
 11
233.932814
 21
-1.024427
 31
0.0
  0
LINE
  5
D6
330
1F
100
AcDbEntity
  8
109
  6
CONTINUOUS
 62
     7
100
AcDbLine
 10
233.932813
 20
-12.259625
 30
0.0
 11
233.932814
 21
-1.024427
 31
0.0
  0
LINE
  5
D7
330
1F
100
AcDbEntity
  8
109
  6
CONTINUOUS
 62
     7
100
AcDbLine
 10
233.932813
 20
-12.259625
 30
0.0
 11
233.998137
 21
-12.272083
 31
0.0
  0
LINE
  5
D8
330
1F
100
AcDbEntity
  8
109
  6
CONTINUOUS
 62
     7
100
AcDbLine
 10
233.932813
 20
-14.152518
 30
0.0
 11
233.998137
 21
-14.168137
 31
0.0
  0
LINE
  5
D9
330
1F
100
AcDbEntity
  8
109
  6
CONTINUOUS
 62
     7
100
AcDbLine
 10
233.932813
 20
-14.152518
 30
0.0
 11
233.932813
 21
-23.67726
 31
0.0
  0
LINE
  5
DA
330
1F
100
AcDbEntity
  8
109
  6
CONTINUOUS
 62
     7
100
AcDbLine
 10
233.998136
 20
-23.701989
 30
0.0
 11
233.932813
 21
-23.67726
 31
0.0
  0
LINE
  5
DB
330
1F
100
AcDbEntity
  8
109
  6
CONTINUOUS
 62
     7
100
AcDbLine
 10
233.932813
 20
-25.126018
 30
0.0
 11
233.998136
 21
-25.153166
 31
0.0
  0
LINE
  5
DC
330
1F
100
AcDbEntity
  8
109
  6
CONTINUOUS
 62
     7
100
AcDbLine
 10
233.998136
 20
-31.523483
 30
0.0
 11
245.000002
 21
-32.02634
 31
0.0
  0
LINE
  5
DD
330
1F
100
AcDbEntity
  8
109
  6
CONTINUOUS
 62
     7
100
AcDbLine
 10
233.998136
 20
-32.308854
 30
0.0
 11
245.000002
 21
-33.032208
 31
0.0
  0
LINE
  5
DE
330
1F
100
AcDbEntity
  8
109
  6
CONTINUOUS
 62
     7
100
AcDbLine
 10
233.998135
 20
-34.545812
 30
0.0
 11
245.000001
 21
-35.209432
 31
0.0
  0
LINE
  5
DF
330
1F
100
AcDbEntity
  8
109
  6
CONTINUOUS
 62
     7
100
AcDbLine
 10
233.998135
 20
34.545812
 30
0.0
 11
245.000001
 21
35.209432
 31
0.0
  0
LINE
  5
E0
330
1F
100
AcDbEntity
  8
109
  6
CONTINUOUS
 62
     7
100
AcDbLine
 10
233.998136
 20
32.308854
 30
0.0
 11
245.000002
 21
33.032208
 31
0.0
  0
LINE
  5
E1
330
1F
100
AcDbEntity
  8
109
  6
CONTINUOUS
 62
     7
100
AcDbLine
 10
233.998136
 20
31.523483
 30
0.0
 11
245.000002
 21
32.02634
 31
0.0
  0
LINE
  5
E2
330
1F
100
AcDbEntity
  8
109
  6
CONTINUOUS
 62
     7
100
AcDbLine
 10
233.998136
 20
25.153166
 30
0.0
 11
245.000002
 21
25.82613
 31
0.0
  0
LINE
  5
E3
330
1F
100
AcDbEntity
  8
109
  6
CONTINUOUS
 62
     7
100
AcDbLine
 10
233.998136
 20
23.701989
 30
0.0
 11
245.000002
 21
23.967527
 31
0.0
  0
LINE
  5
E4
330
1F
100
AcDbEntity
  8
109
  6
CONTINUOUS
 62
     7
100
AcDbLine
 10
233.998137
 20
14.168137
 30
0.0
 11
245.000003
 21
14.688258
 31
0.0
  0
LINE
  5
E5
330
1F
100
AcDbEntity
  8
109
  6
CONTINUOUS
 62
     7
100
AcDbLine
 10
233.998137
 20
12.272083
 30
0.0
 11
245.000003
 21
12.259875
 31
0.0
  0
LINE
  5
E6
330
1F
100
AcDbEntity
  8
109
  6
CONTINUOUS
 62
     7
100
AcDbLine
 10
233.998137
 20
-1.026137
 30
0.0
 11
245.000003
 21
-1.314231
 31
0.0
  0
LINE
  5
E7
330
1F
100
AcDbEntity
  8
109
  6
CONTINUOUS
 62
     7
100
AcDbLine
 10
233.998137
 20
-12.272083
 30
0.0
 11
245.000003
 21
-12.259875
 31
0.0
  0
LINE
  5
E8
330
1F
100
AcDbEntity
  8
109
  6
CONTINUOUS
 62
     7
100
AcDbLine
 10
233.998137
 20
-14.168137
 30
0.0
 11
245.000003
 21
-14.688258
 31
0.0
  0
LINE
  5
E9
330
1F
100
AcDbEntity
  8
109
  6
CONTINUOUS
 62
     7
100
AcDbLine
 10
233.998136
 20
-23.701989
 30
0.0
 11
245.000002
 21
-23.967527
 31
0.0
  0
LINE
  5
EA
330
1F
100
AcDbEntity
  8
109
  6
CONTINUOUS
 62
     7
100
AcDbLine
 10
233.998136
 20
-25.153166
 30
0.0
 11
245.000002
 21
-25.82613
 31
0.0
  0
LINE
  5
EB
330
1F
100
AcDbEntity
  8
109
  6
CONTINUOUS
 62
     7
100
AcDbLine
 10
233.998135
 20
34.561049
 30
0.0
 11
245.000001
 21
35.233951
 31
0.0
  0
LINE
  5
EC
330
1F
100
AcDbEntity
  8
109
  6
CONTINUOUS
 62
     7
100
AcDbLine
 10
233.998135
 20
-34.561049
 30
0.0
 11
245.000001
 21
-35.233951
 31
0.0
  0
LINE
  5
ED
330
1F
100
AcDbEntity
  8
109
  6
CONTINUOUS
 62
     7
100
AcDbLine
 10
233.0
 20
34.0
 30
0.0
 11
233.998135
 21
34.561049
 31
0.0
  0
LINE
  5
EE
330
1F
100
AcDbEntity
  8
109
  6
CONTINUOUS
 62
     7
100
AcDbLine
 10
233.0
 20
-34.0
 30
0.0
 11
233.998135
 21
-34.561049
 31
0.0
  0
LINE
  5
EF
330
1F
100
AcDbEntity
  8
109
  6
CONTINUOUS
 62
     7
100
AcDbLine
 10
245.000001
 20
34.549864
 30
0.0
 11
250.000001
 21
34.462589
 31
0.0
  0
LINE
  5
F0
330
1F
100
AcDbEntity
  8
109
  6
CONTINUOUS
 62
     7
100
AcDbLine
 10
245.000001
 20
-34.549864
 30
0.0
 11
250.000001
 21
-34.462589
 31
0.0
  0
LINE
  5
F1
330
1F
100
AcDbEntity
  8
109
  6
CONTINUOUS
 62
     7
100
AcDbLine
 10
250.000001
 20
-37.5
 30
0.0
 11
250.000001
 21
37.5
 31
0.0
  0
LINE
  5
F2
330
1F
100
AcDbEntity
  8
109
  6
CONTINUOUS
 62
     7
100
AcDbLine
 10
252.000001
 20
-37.5
 30
0.0
 11
252.000001
 21
37.5
 31
0.0
  0
LINE
  5
F3
330
1F
100
AcDbEntity
  8
109
  6
CONTINUOUS
 62
     7
100
AcDbLine
 10
250.000001
 20
37.5
 30
0.0
 11
252.000001
 21
37.5
 31
0.0
  0
LINE
  5
F4
330
1F
100
AcDbEntity
  8
109
  6
CONTINUOUS
 62
     7
100
AcDbLine
 10
250.000001
 20
-37.5
 30
0.0
 11
252.000001
 21
-37.5
 31
0.0
  0
LINE
  5
F5
330
1F
100
AcDbEntity
  8
109
  6
CONTINUOUS
 62
     7
100
AcDbLine
 10
1.024423
 20
-233.932813
 30
0.0
 11
1.314227
 21
-245.000002
 31
0.0
  0
LINE
  5
F6
330
1F
100
AcDbEntity
  8
109
  6
CONTINUOUS
 62
     7
100
AcDbLine
 10
37.499996
 20
-252.0
 30
0.0
 11
-37.500004
 21
-252.0
 31
0.0
  0
LINE
  5
F7
330
1F
100
AcDbEntity
  8
109
  6
CONTINUOUS
 62
     7
100
AcDbLine
 10
37.499996
 20
-250.0
 30
0.0
 11
-37.500004
 21
-250.0
 31
0.0
  0
LINE
  5
F8
330
1F
100
AcDbEntity
  8
109
  6
CONTINUOUS
 62
     7
100
AcDbLine
 10
35.233777
 20
-245.0
 30
0.0
 11
-35.233785
 21
-245.0
 31
0.0
  0
LINE
  5
F9
330
1F
100
AcDbEntity
  8
109
  6
CONTINUOUS
 62
     7
100
AcDbLine
 10
233.932814
 20
1.024427
 30
0.0
 11
245.000003
 21
1.314231
 31
0.0
  0
LINE
  5
FA
330
1F
100
AcDbEntity
  8
109
  6
CONTINUOUS
 62
     7
100
AcDbLine
 10
-1.02443
 20
-233.932813
 30
0.0
 11
-1.314235
 21
-245.000002
 31
0.0
  0
LINE
  5
FB
330
1F
100
AcDbEntity
  8
109
  6
CONTINUOUS
 62
     7
100
AcDbLine
 10
233.0
 20
-34.0
 30
0.0
 11
233.0
 21
34.0
 31
0.0
  0
LINE
  5
FC
330
1F
100
AcDbEntity
  8
109
  6
CONTINUOUS
 62
     7
100
AcDbLine
 10
233.998135
 20
-1.026137
 30
0.0
 11
233.998135
 21
1.026137
 31
0.0
  0
LINE
  5
FD
330
1F
100
AcDbEntity
  8
109
  6
CONTINUOUS
 62
     7
100
AcDbLine
 10
245.000001
 20
-35.233781
 30
0.0
 11
245.000001
 21
-32.02634
 31
0.0
  0
LINE
  5
FE
330
1F
100
AcDbEntity
  8
109
  6
CONTINUOUS
 62
     7
100
AcDbLine
 10
245.000001
 20
-31.638295
 30
0.0
 11
245.000001
 21
-23.967527
 31
0.0
  0
LINE
  5
FF
330
1F
100
AcDbEntity
  8
109
  6
CONTINUOUS
 62
     7
100
AcDbLine
 10
245.000001
 20
-23.67053
 30
0.0
 11
245.000001
 21
-12.259875
 31
0.0
  0
LINE
  5
100
330
1F
100
AcDbEntity
  8
109
  6
CONTINUOUS
 62
     7
100
AcDbLine
 10
245.000001
 20
-12.099142
 30
0.0
 11
245.000001
 21
12.099142
 31
0.0
  0
LINE
  5
101
330
1F
100
AcDbEntity
  8
109
  6
CONTINUOUS
 62
     7
100
AcDbLine
 10
245.000001
 20
12.259875
 30
0.0
 11
245.000001
 21
23.67053
 31
0.0
  0
LINE
  5
102
330
1F
100
AcDbEntity
  8
109
  6
CONTINUOUS
 62
     7
100
AcDbLine
 10
245.000001
 20
23.967527
 30
0.0
 11
245.000001
 21
31.638295
 31
0.0
  0
LINE
  5
103
330
1F
100
AcDbEntity
  8
109
  6
CONTINUOUS
 62
     7
100
AcDbLine
 10
245.000001
 20
32.02634
 30
0.0
 11
245.000001
 21
35.233781
 31
0.0
  0
LINE
  5
105
330
1F
100
AcDbEntity
  8
109
  6
DASHDOT
 62
     1
100
AcDbLine
 10
-39.0
 20
0.0
 30
0.0
 11
39.0
 21
0.0
 31
0.0
  0
LINE
  5
106
330
1F
100
AcDbEntity
  8
109
  6
DASHDOT
 62
     1
100
AcDbLine
 10
0.0
 20
-39.0
 30
0.0
 11
0.0
 21
39.0
 31
0.0
  0
LINE
  5
107
330
1F
100
AcDbEntity
  8
109
  6
DASHDOT
 62
     1
100
AcDbLine
 10
232.145252
 20
0.0
 30
0.0
 11
253.145252
 21
0.0
 31
0.0
  0
LINE
  5
108
330
1F
100
AcDbEntity
  8
109
  6
DASHDOT
 62
     1
100
AcDbLine
 10
0.0
 20
-231.315667
 30
0.0
 11
0.0
 21
-253.315667
 31
0.0
  0
TEXT
  5
109
330
1F
100
AcDbEntity
  8
0
  6
CONTINUOUS
 62
     2
 60
     1
100
AcDbText
 10
104.821451
 20
177.216415
 30
0.0
 40
3.5
  1
a
  7
FSB
 72
     1
 11
106.179451
 21
180.716415
 31
0.0
100
AcDbText
 73
     3
  0
TEXT
  5
10A
330
1F
100
AcDbEntity
  8
0
  6
CONTINUOUS
 62
     2
 60
     1
100
AcDbText
 10
253.907029
 20
177.216431
 30
0.0
 40
3.5
  1
D-D
  7
FSB
 72
     1
 11
258.248779
 21
180.716431
 31
0.0
100
AcDbText
 73
     3
  0
CIRCLE
  5
10B
330
1F
100
AcDbEntity
  8
109
  6
HIDDEN2
 62
     1
100
AcDbCircle
 10
0.0
 20
0.0
 30
0.0
 40
34.54986402392386
  0
LINE
  5
10C
330
1F
100
AcDbEntity
  8
109
  6
HIDDEN2
 62
     1
100
AcDbLine
 10
14.527524
 20
31.638295
 30
0.0
 11
14.688258
 21
32.02634
 31
0.0
  0
ARC
  5
10D
330
1F
100
AcDbEntity
  8
109
  6
HIDDEN2
 62
     1
100
AcDbCircle
 10
0.0
 20
0.0
 30
0.0
 40
35.23395148094618
100
AcDbArc
 50
65.362364
 51
69.637636
  0
LINE
  5
10E
330
1F
100
AcDbEntity
  8
109
  6
HIDDEN2
 62
     1
100
AcDbLine
 10
12.259875
 20
33.032208
 30
0.0
 11
12.099142
 21
32.644164
 31
0.0
  0
LINE
  5
10F
330
1F
100
AcDbEntity
  8
109
  6
HIDDEN2
 62
     1
100
AcDbLine
 10
1.314231
 20
34.789416
 30
0.0
 11
1.314231
 21
35.209432
 31
0.0
  0
ARC
  5
110
330
1F
100
AcDbEntity
  8
109
  6
HIDDEN2
 62
     1
100
AcDbCircle
 10
0.0
 20
0.0
 30
0.0
 40
35.23395148094618
100
AcDbArc
 50
87.862364
 51
92.137636
  0
LINE
  5
111
330
1F
100
AcDbEntity
  8
109
  6
HIDDEN2
 62
     1
100
AcDbLine
 10
-1.314231
 20
35.209432
 30
0.0
 11
-1.314231
 21
34.789416
 31
0.0
  0
LINE
  5
112
330
1F
100
AcDbEntity
  8
109
  6
HIDDEN2
 62
     1
100
AcDbLine
 10
-12.099142
 20
32.644164
 30
0.0
 11
-12.259875
 21
33.032208
 31
0.0
  0
ARC
  5
113
330
1F
100
AcDbEntity
  8
109
  6
HIDDEN2
 62
     1
100
AcDbCircle
 10
0.0
 20
0.0
 30
0.0
 40
35.23395148094618
100
AcDbArc
 50
110.362364
 51
114.637636
  0
LINE
  5
114
330
1F
100
AcDbEntity
  8
109
  6
HIDDEN2
 62
     1
100
AcDbLine
 10
-14.688258
 20
32.02634
 30
0.0
 11
-14.527524
 21
31.638295
 31
0.0
  0
LINE
  5
115
330
1F
100
AcDbEntity
  8
109
  6
HIDDEN2
 62
     1
100
AcDbLine
 10
-23.67053
 20
25.529134
 30
0.0
 11
-23.967527
 21
25.82613
 31
0.0
  0
ARC
  5
116
330
1F
100
AcDbEntity
  8
109
  6
HIDDEN2
 62
     1
100
AcDbCircle
 10
0.0
 20
0.0
 30
0.0
 40
35.23395148094618
100
AcDbArc
 50
132.862364
 51
137.137636
  0
LINE
  5
117
330
1F
100
AcDbEntity
  8
109
  6
HIDDEN2
 62
     1
100
AcDbLine
 10
-25.82613
 20
23.967527
 30
0.0
 11
-25.529134
 21
23.67053
 31
0.0
  0
LINE
  5
118
330
1F
100
AcDbEntity
  8
109
  6
HIDDEN2
 62
     1
100
AcDbLine
 10
-31.638295
 20
14.527524
 30
0.0
 11
-32.02634
 21
14.688258
 31
0.0
  0
ARC
  5
119
330
1F
100
AcDbEntity
  8
109
  6
HIDDEN2
 62
     1
100
AcDbCircle
 10
0.0
 20
0.0
 30
0.0
 40
35.23395148094618
100
AcDbArc
 50
155.362364
 51
159.637636
  0
LINE
  5
11A
330
1F
100
AcDbEntity
  8
109
  6
HIDDEN2
 62
     1
100
AcDbLine
 10
-33.032208
 20
12.259875
 30
0.0
 11
-32.644164
 21
12.099142
 31
0.0
  0
LINE
  5
11B
330
1F
100
AcDbEntity
  8
109
  6
HIDDEN2
 62
     1
100
AcDbLine
 10
-34.789416
 20
1.314231
 30
0.0
 11
-35.209432
 21
1.314231
 31
0.0
  0
ARC
  5
11C
330
1F
100
AcDbEntity
  8
109
  6
HIDDEN2
 62
     1
100
AcDbCircle
 10
0.0
 20
0.0
 30
0.0
 40
35.23395148094618
100
AcDbArc
 50
177.862364
 51
182.137636
  0
LINE
  5
11D
330
1F
100
AcDbEntity
  8
109
  6
HIDDEN2
 62
     1
100
AcDbLine
 10
-35.209432
 20
-1.314231
 30
0.0
 11
-34.789416
 21
-1.314231
 31
0.0
  0
LINE
  5
11E
330
1F
100
AcDbEntity
  8
109
  6
HIDDEN2
 62
     1
100
AcDbLine
 10
-32.644164
 20
-12.099142
 30
0.0
 11
-33.032208
 21
-12.259875
 31
0.0
  0
ARC
  5
11F
330
1F
100
AcDbEntity
  8
109
  6
HIDDEN2
 62
     1
100
AcDbCircle
 10
0.0
 20
0.0
 30
0.0
 40
35.23395148094618
100
AcDbArc
 50
200.362364
 51
204.637636
  0
LINE
  5
120
330
1F
100
AcDbEntity
  8
109
  6
HIDDEN2
 62
     1
100
AcDbLine
 10
-32.02634
 20
-14.688258
 30
0.0
 11
-31.638295
 21
-14.527524
 31
0.0
  0
LINE
  5
121
330
1F
100
AcDbEntity
  8
109
  6
HIDDEN2
 62
     1
100
AcDbLine
 10
-25.529134
 20
-23.67053
 30
0.0
 11
-25.82613
 21
-23.967527
 31
0.0
  0
ARC
  5
122
330
1F
100
AcDbEntity
  8
109
  6
HIDDEN2
 62
     1
100
AcDbCircle
 10
0.0
 20
0.0
 30
0.0
 40
35.23395148094618
100
AcDbArc
 50
222.862364
 51
227.137636
  0
LINE
  5
123
330
1F
100
AcDbEntity
  8
109
  6
HIDDEN2
 62
     1
100
AcDbLine
 10
-23.967527
 20
-25.82613
 30
0.0
 11
-23.67053
 21
-25.529134
 31
0.0
  0
LINE
  5
124
330
1F
100
AcDbEntity
  8
109
  6
HIDDEN2
 62
     1
100
AcDbLine
 10
-14.527524
 20
-31.638295
 30
0.0
 11
-14.688258
 21
-32.02634
 31
0.0
  0
ARC
  5
125
330
1F
100
AcDbEntity
  8
109
  6
HIDDEN2
 62
     1
100
AcDbCircle
 10
0.0
 20
0.0
 30
0.0
 40
35.23395148094618
100
AcDbArc
 50
245.362364
 51
249.637636
  0
LINE
  5
126
330
1F
100
AcDbEntity
  8
109
  6
HIDDEN2
 62
     1
100
AcDbLine
 10
-12.259875
 20
-33.032208
 30
0.0
 11
-12.099142
 21
-32.644164
 31
0.0
  0
LINE
  5
127
330
1F
100
AcDbEntity
  8
109
  6
HIDDEN2
 62
     1
100
AcDbLine
 10
-1.314231
 20
-34.789416
 30
0.0
 11
-1.314231
 21
-35.209432
 31
0.0
  0
ARC
  5
128
330
1F
100
AcDbEntity
  8
109
  6
HIDDEN2
 62
     1
100
AcDbCircle
 10
0.0
 20
0.0
 30
0.0
 40
35.23395148094618
100
AcDbArc
 50
267.862364
 51
272.137636
  0
LINE
  5
129
330
1F
100
AcDbEntity
  8
109
  6
HIDDEN2
 62
     1
100
AcDbLine
 10
1.314231
 20
-35.209432
 30
0.0
 11
1.314231
 21
-34.789416
 31
0.0
  0
LINE
  5
12A
330
1F
100
AcDbEntity
  8
109
  6
HIDDEN2
 62
     1
100
AcDbLine
 10
12.099142
 20
-32.644164
 30
0.0
 11
12.259875
 21
-33.032208
 31
0.0
  0
ARC
  5
12B
330
1F
100
AcDbEntity
  8
109
  6
HIDDEN2
 62
     1
100
AcDbCircle
 10
0.0
 20
0.0
 30
0.0
 40
35.23395148094618
100
AcDbArc
 50
290.362364
 51
294.637636
  0
LINE
  5
12C
330
1F
100
AcDbEntity
  8
109
  6
HIDDEN2
 62
     1
100
AcDbLine
 10
14.688258
 20
-32.02634
 30
0.0
 11
14.527524
 21
-31.638295
 31
0.0
  0
LINE
  5
12D
330
1F
100
AcDbEntity
  8
109
  6
HIDDEN2
 62
     1
100
AcDbLine
 10
23.67053
 20
-25.529134
 30
0.0
 11
23.967527
 21
-25.82613
 31
0.0
  0
ARC
  5
12E
330
1F
100
AcDbEntity
  8
109
  6
HIDDEN2
 62
     1
100
AcDbCircle
 10
0.0
 20
0.0
 30
0.0
 40
35.23395148094618
100
AcDbArc
 50
312.862364
 51
317.137636
  0
LINE
  5
12F
330
1F
100
AcDbEntity
  8
109
  6
HIDDEN2
 62
     1
100
AcDbLine
 10
25.82613
 20
-23.967527
 30
0.0
 11
25.529134
 21
-23.67053
 31
0.0
  0
LINE
  5
130
330
1F
100
AcDbEntity
  8
109
  6
HIDDEN2
 62
     1
100
AcDbLine
 10
31.638295
 20
-14.527524
 30
0.0
 11
32.02634
 21
-14.688258
 31
0.0
  0
ARC
  5
131
330
1F
100
AcDbEntity
  8
109
  6
HIDDEN2
 62
     1
100
AcDbCircle
 10
0.0
 20
0.0
 30
0.0
 40
35.23395148094618
100
AcDbArc
 50
335.362364
 51
339.637636
  0
LINE
  5
132
330
1F
100
AcDbEntity
  8
109
  6
HIDDEN2
 62
     1
100
AcDbLine
 10
33.032208
 20
-12.259875
 30
0.0
 11
32.644164
 21
-12.099142
 31
0.0
  0
LINE
  5
133
330
1F
100
AcDbEntity
  8
109
  6
HIDDEN2
 62
     1
100
AcDbLine
 10
34.789416
 20
-1.314231
 30
0.0
 11
35.209432
 21
-1.314231
 31
0.0
  0
LINE
  5
134
330
1F
100
AcDbEntity
  8
109
  6
HIDDEN2
 62
     1
100
AcDbLine
 10
35.209432
 20
1.314231
 30
0.0
 11
34.789416
 21
1.314231
 31
0.0
  0
LINE
  5
135
330
1F
100
AcDbEntity
  8
109
  6
HIDDEN2
 62
     1
100
AcDbLine
 10
32.644164
 20
12.099142
 30
0.0
 11
33.032208
 21
12.259875
 31
0.0
  0
ARC
  5
136
330
1F
100
AcDbEntity
  8
109
  6
HIDDEN2
 62
     1
100
AcDbCircle
 10
0.0
 20
0.0
 30
0.0
 40
35.23395148094618
100
AcDbArc
 50
20.362364
 51
24.637636
  0
LINE
  5
137
330
1F
100
AcDbEntity
  8
109
  6
HIDDEN2
 62
     1
100
AcDbLine
 10
32.02634
 20
14.688258
 30
0.0
 11
31.638295
 21
14.527524
 31
0.0
  0
LINE
  5
138
330
1F
100
AcDbEntity
  8
109
  6
HIDDEN2
 62
     1
100
AcDbLine
 10
25.529134
 20
23.67053
 30
0.0
 11
25.82613
 21
23.967527
 31
0.0
  0
ARC
  5
139
330
1F
100
AcDbEntity
  8
109
  6
HIDDEN2
 62
     1
100
AcDbCircle
 10
0.0
 20
0.0
 30
0.0
 40
35.23395148094618
100
AcDbArc
 50
42.862364
 51
47.137636
  0
LINE
  5
13A
330
1F
100
AcDbEntity
  8
109
  6
HIDDEN2
 62
     1
100
AcDbLine
 10
23.967527
 20
25.82613
 30
0.0
 11
23.67053
 21
25.529134
 31
0.0
  0
ARC
  5
13B
330
1F
100
AcDbEntity
  8
109
  6
HIDDEN2
 62
     1
100
AcDbCircle
 10
0.0
 20
0.0
 30
0.0
 40
35.23395148094618
100
AcDbArc
 50
357.862364
 51
2.137636
  0
CIRCLE
  5
13C
330
1F
100
AcDbEntity
  8
109
  6
HIDDEN2
 62
     1
100
AcDbCircle
 10
0.0
 20
0.0
 30
0.0
 40
34.46258869928278
  0
CIRCLE
  5
13D
330
1F
100
AcDbEntity
  8
109
  6
HIDDEN2
 62
     1
100
AcDbCircle
 10
0.0
 20
0.0
 30
0.0
 40
27.1
  0
CIRCLE
  5
13E
330
1F
100
AcDbEntity
  8
109
  6
HIDDEN2
 62
     1
100
AcDbCircle
 10
0.0
 20
0.0
 30
0.0
 40
34.81423105883024
  0
LINE
  5
13F
330
1F
100
AcDbEntity
  8
109
  6
HIDDEN2
 62
     1
100
AcDbLine
 10
234.0
 20
26.558049
 30
0.0
 11
246.412701
 21
27.1
 31
0.0
  0
LINE
  5
140
330
1F
100
AcDbEntity
  8
109
  6
HIDDEN2
 62
     1
100
AcDbLine
 10
246.412701
 20
27.1
 30
0.0
 11
250.0
 21
27.1
 31
0.0
  0
LINE
  5
141
330
1F
100
AcDbEntity
  8
109
  6
HIDDEN2
 62
     1
100
AcDbLine
 10
246.412703
 20
-27.1
 30
0.0
 11
234.000002
 21
-26.55805
 31
0.0
  0
LINE
  5
142
330
1F
100
AcDbEntity
  8
109
  6
HIDDEN2
 62
     1
100
AcDbLine
 10
250.000002
 20
-27.1
 30
0.0
 11
246.412703
 21
-27.1
 31
0.0
  0
LINE
  5
143
330
1F
100
AcDbEntity
  8
109
  6
HIDDEN2
 62
     1
100
AcDbLine
 10
250.000001
 20
27.0
 30
0.0
 11
252.000001
 21
27.0
 31
0.0
  0
LINE
  5
144
330
1F
100
AcDbEntity
  8
109
  6
HIDDEN2
 62
     1
100
AcDbLine
 10
250.000001
 20
-27.0
 30
0.0
 11
252.000001
 21
-27.0
 31
0.0
  0
LINE
  5
145
330
1F
100
AcDbEntity
  8
109
  6
HIDDEN2
 62
     1
100
AcDbLine
 10
26.558049
 20
-233.999999
 30
0.0
 11
27.1
 21
-246.4127
 31
0.0
  0
LINE
  5
146
330
1F
100
AcDbEntity
  8
109
  6
HIDDEN2
 62
     1
100
AcDbLine
 10
27.1
 20
-246.4127
 30
0.0
 11
27.1
 21
-249.999999
 31
0.0
  0
LINE
  5
147
330
1F
100
AcDbEntity
  8
109
  6
HIDDEN2
 62
     1
100
AcDbLine
 10
27.0
 20
-250.0
 30
0.0
 11
27.0
 21
-252.0
 31
0.0
  0
LINE
  5
148
330
1F
100
AcDbEntity
  8
109
  6
HIDDEN2
 62
     1
100
AcDbLine
 10
-27.1
 20
-246.412702
 30
0.0
 11
-26.55805
 21
-234.000001
 31
0.0
  0
LINE
  5
149
330
1F
100
AcDbEntity
  8
109
  6
HIDDEN2
 62
     1
100
AcDbLine
 10
-27.1
 20
-250.000001
 30
0.0
 11
-27.1
 21
-246.412702
 31
0.0
  0
LINE
  5
14A
330
1F
100
AcDbEntity
  8
109
  6
HIDDEN2
 62
     1
100
AcDbLine
 10
-27.0
 20
-250.0
 30
0.0
 11
-27.0
 21
-252.0
 31
0.0
  0
MTEXT
  5
14B
330
1F
100
AcDbEntity
  8
109
  6
CONTINUOUS
 62
     7
100
AcDbMText
 10
125.0
 20
-185.0
 30
0.0
 40
5.0
 41
0.0
 71
     7
 72
     1
  1
Einlassmuschel^M\P42425200000-0
  7
FSB
1001
ACAD
1000
MTEXTBEGIN
1070
    73
1070
     2
1070
    44
1040
0.839983
1000
MTEXTEND
  0
ENDSEC
  0
SECTION
  2
OBJECTS
  0
DICTIONARY
  5
C
330
0
100
AcDbDictionary
  3
ACAD_GROUP
350
D
  3
ACAD_LAYOUT
350
1A
  3
ACAD_MLEADERSTYLE
350
16E
  3
ACAD_MLINESTYLE
350
17
  3
ACAD_PLOTSETTINGS
350
19
  3
ACAD_SCALELIST
350
49
  3
ACAD_VISUALSTYLE
350
2A
  3
ACDBHEADERROUNDTRIPXREC
350
14C
  3
ACDBVARIABLEDICTIONARY
350
16C
  0
DICTIONARY
  5
D
102
{ACAD_REACTORS
330
C
102
}
330
C
100
AcDbDictionary
  0
DICTIONARY
  5
1A
102
{ACAD_REACTORS
330
C
102
}
330
C
100
AcDbDictionary
  0
DICTIONARY
  5
16E
102
{ACAD_REACTORS
330
C
102
}
330
C
100
AcDbDictionary
  0
DICTIONARY
  5
17
102
{ACAD_REACTORS
330
C
102
}
330
C
100
AcDbDictionary
  3
STANDARD
350
18
  0
DICTIONARY
  5
19
102
{ACAD_REACTORS
330
C
102
}
330
C
100
AcDbDictionary
  0
DICTIONARY
  5
49
102
{ACAD_REACTORS
330
C
102
}
330
C
100
AcDbDictionary
  3
A0
350
4A
  3
A1
350
4B
  3
A2
350
4C
  3
A3
350
4D
  3
A4
350
4E
  3
A5
350
4F
  3
A6
350
50
  3
A7
350
51
  3
A8
350
52
  3
A9
350
53
  3
B0
350
54
  3
B1
350
55
  3
B2
350
56
  3
B3
350
57
  3
B4
350
58
  3
B5
350
59
  3
B6
350
5A
  3
B7
350
5B
  3
B8
350
5C
  3
B9
350
5D
  3
C0
350
5E
  3
C1
350
5F
  3
C2
350
60
  3
C3
350
61
  3
C4
350
62
  3
C5
350
63
  3
C6
350
64
  3
C7
350
65
  3
C8
350
66
  3
C9
350
67
  3
D0
350
68
  3
D1
350
69
  3
D2
350
6A
  0
DICTIONARY
  5
2A
102
{ACAD_REACTORS
330
C
102
}
330
C
100
AcDbDictionary
  3
2DWIREFRAME
350
2F
  3
3D_HIDDEN
350
31
  3
3DWIREFRAME
350
30
  3
BASIC
350
32
  3
BRIGHTEN
350
36
  3
COLORCHANGE
350
3A
  3
CONCEPTUAL
350
34
  3
DIM
350
35
  3
FACEPATTERN
350
39
  3
FLAT
350
2B
  3
FLATWITHEDGES
350
2C
  3
GOURAUD
350
2D
  3
GOURAUDWITHEDGES
350
2E
  3
LINEPATTERN
350
38
  3
REALISTIC
350
33
  3
THICKEN
350
37
  0
DICTIONARY
  5
14C
102
{ACAD_REACTORS
330
C
102
}
330
C
100
AcDbDictionary
  3
CEPSNTYPE
350
155
  3
DIMSTYLEDATA
350
16B
  3
FINGERPRINTGUID
350
156
  3
HYPERLINKBASE
350
14F
  3
INSUNITS
350
154
  3
LAYOUTDICT
350
151
  3
LWETCUNION
350
153
  3
PLOTSETDICT
350
152
  3
PSVPSCALE
350
158
  3
PUCSBASE
350
15B
  3
PUCSORGBACK
350
161
  3
PUCSORGBOTTOM
350
15D
  3
PUCSORGFRONT
350
160
  3
PUCSORGLEFT
350
15E
  3
PUCSORGRIGHT
350
15F
  3
PUCSORGTOP
350
15C
  3
PUCSORTHOREF
350
159
  3
PUCSORTHOVIEW
350
15A
  3
STYLESHEET
350
150
  3
TSTACKALIGN
350
14D
  3
TSTACKSIZE
350
14E
  3
UCSBASE
350
164
  3
UCSORGBACK
350
16A
  3
UCSORGBOTTOM
350
166
  3
UCSORGFRONT
350
169
  3
UCSORGLEFT
350
167
  3
UCSORGRIGHT
350
168
  3
UCSORGTOP
350
165
  3
UCSORTHOREF
350
162
  3
UCSORTHOVIEW
350
163
  3
VERSIONGUID
350
157
  0
DICTIONARY
  5
16C
102
{ACAD_REACTORS
330
C
102
}
330
C
100
AcDbDictionary
  3
CANNOSCALE
350
171
  3
PSOLHEIGHT
350
170
  3
PSOLWIDTH
350
16F
  0
MLINESTYLE
  5
18
102
{ACAD_REACTORS
330
17
102
}
330
17
100
AcDbMlineStyle
  2
Standard
 70
     0
  3

 62
   256
 51
90.0
 52
90.0
 71
     2
 49
0.5
 62
   256
  6
BYLAYER
 49
-0.5
 62
   256
  6
BYLAYER
  0
ACAD_PROXY_OBJECT
  5
4A
102
{ACAD_REACTORS
330
49
102
}
330
49
100
AcDbProxyObject
 90
      499
 91
      502
 93
       41
310
903313A31580
  0
ACAD_PROXY_OBJECT
  5
4B
102
{ACAD_REACTORS
330
49
102
}
330
49
100
AcDbProxyObject
 90
      499
 91
      502
 93
      105
310
903313A324000000000000004000
  0
ACAD_PROXY_OBJECT
  5
4C
102
{ACAD_REACTORS
330
49
102
}
330
49
100
AcDbProxyObject
 90
      499
 91
      502
 93
      105
310
903313A344000000000000104000
  0
ACAD_PROXY_OBJECT
  5
4D
102
{ACAD_REACTORS
330
49
102
}
330
49
100
AcDbProxyObject
 90
      499
 91
      502
 93
      105
310
903313A354000000000000144000
  0
ACAD_PROXY_OBJECT
  5
4E
102
{ACAD_REACTORS
330
49
102
}
330
49
100
AcDbProxyObject
 90
      499
 91
      502
 93
      105
310
903313A384000000000000204000
  0
ACAD_PROXY_OBJECT
  5
4F
102
{ACAD_REACTORS
330
49
102
}
330
49
100
AcDbProxyObject
 90
      499
 91
      502
 93
      113
310
904313A31304000000000000244000
  0
ACAD_PROXY_OBJECT
  5
50
102
{ACAD_REACTORS
330
49
102
}
330
49
100
AcDbProxyObject
 90
      499
 91
      502
 93
      113
310
904313A31364000000000000304000
  0
ACAD_PROXY_OBJECT
  5
51
102
{ACAD_REACTORS
330
49
102
}
330
49
100
AcDbProxyObject
 90
      499
 91
      502
 93
      113
310
904313A32304000000000000344000
  0
ACAD_PROXY_OBJECT
  5
52
102
{ACAD_REACTORS
330
49
102
}
330
49
100
AcDbProxyObject
 90
      499
 91
      502
 93
      113
310
904313A333040000000000003E4000
  0
ACAD_PROXY_OBJECT
  5
53
102
{ACAD_REACTORS
330
49
102
}
330
49
100
AcDbProxyObject
 90
      499
 91
      502
 93
      113
310
904313A34304000000000000444000
  0
ACAD_PROXY_OBJECT
  5
54
102
{ACAD_REACTORS
330
49
102
}
330
49
100
AcDbProxyObject
 90
      499
 91
      502
 93
      113
310
904313A35304000000000000494000
  0
ACAD_PROXY_OBJECT
  5
55
102
{ACAD_REACTORS
330
49
102
}
330
49
100
AcDbProxyObject
 90
      499
 91
      502
 93
      121
310
905313A3130304000000000000594000
  0
ACAD_PROXY_OBJECT
  5
56
102
{ACAD_REACTORS
330
49
102
}
330
49
100
AcDbProxyObject
 90
      499
 91
      502
 93
      105
310
903323A310000000000000010100
  0
ACAD_PROXY_OBJECT
  5
57
102
{ACAD_REACTORS
330
49
102
}
330
49
100
AcDbProxyObject
 90
      499
 91
      502
 93
      105
310
903343A310000000000000410100
  0
ACAD_PROXY_OBJECT
  5
58
102
{ACAD_REACTORS
330
49
102
}
330
49
100
AcDbProxyObject
 90
      499
 91
      502
 93
      105
310
903383A310000000000000810100
  0
ACAD_PROXY_OBJECT
  5
59
102
{ACAD_REACTORS
330
49
102
}
330
49
100
AcDbProxyObject
 90
      499
 91
      502
 93
      113
310
90431303A310000000000000910100
  0
ACAD_PROXY_OBJECT
  5
5A
102
{ACAD_REACTORS
330
49
102
}
330
49
100
AcDbProxyObject
 90
      499
 91
      502
 93
      121
310
9053130303A310000000000001650100
  0
ACAD_PROXY_OBJECT
  5
5B
102
{ACAD_REACTORS
330
49
102
}
330
49
100
AcDbProxyObject
 90
      499
 91
      502
 93
      257
310
90E312F31323822203D2031272D3022000000000000200FC000000000000284000
  0
ACAD_PROXY_OBJECT
  5
5C
102
{ACAD_REACTORS
330
49
102
}
330
49
100
AcDbProxyObject
 90
      499
 91
      502
 93
      249
310
90D312F363422203D2031272D3022000000000000240FC000000000000284000
  0
ACAD_PROXY_OBJECT
  5
5D
102
{ACAD_REACTORS
330
49
102
}
330
49
100
AcDbProxyObject
 90
      499
 91
      502
 93
      249
310
90D312F333222203D2031272D3022000000000000280FC000000000000284000
  0
ACAD_PROXY_OBJECT
  5
5E
102
{ACAD_REACTORS
330
49
102
}
330
49
100
AcDbProxyObject
 90
      499
 91
      502
 93
      249
310
90D312F313622203D2031272D30220000000000002C0FC000000000000284000
  0
ACAD_PROXY_OBJECT
  5
5F
102
{ACAD_REACTORS
330
49
102
}
330
49
100
AcDbProxyObject
 90
      499
 91
      502
 93
      249
310
90D332F333222203D2031272D30220000000000002E0FC000000000000284000
  0
ACAD_PROXY_OBJECT
  5
60
102
{ACAD_REACTORS
330
49
102
}
330
49
100
AcDbProxyObject
 90
      499
 91
      502
 93
      241
310
90C312F3822203D2031272D3022000000000000300FC000000000000284000
  0
ACAD_PROXY_OBJECT
  5
61
102
{ACAD_REACTORS
330
49
102
}
330
49
100
AcDbProxyObject
 90
      499
 91
      502
 93
      249
310
90D332F313622203D2031272D3022000000000000320FC000000000000284000
  0
ACAD_PROXY_OBJECT
  5
62
102
{ACAD_REACTORS
330
49
102
}
330
49
100
AcDbProxyObject
 90
      499
 91
      502
 93
      241
310
90C312F3422203D2031272D3022000000000000340FC000000000000284000
  0
ACAD_PROXY_OBJECT
  5
63
102
{ACAD_REACTORS
330
49
102
}
330
49
100
AcDbProxyObject
 90
      499
 91
      502
 93
      241
310
90C332F3822203D2031272D3022000000000000360FC000000000000284000
  0
ACAD_PROXY_OBJECT
  5
64
102
{ACAD_REACTORS
330
49
102
}
330
49
100
AcDbProxyObject
 90
      499
 91
      502
 93
      241
310
90C312F3222203D2031272D3022000000000000380FC000000000000284000
  0
ACAD_PROXY_OBJECT
  5
65
102
{ACAD_REACTORS
330
49
102
}
330
49
100
AcDbProxyObject
 90
      499
 91
      502
 93
      241
310
90C332F3422203D2031272D30220000000000003A0FC000000000000284000
  0
ACAD_PROXY_OBJECT
  5
66
102
{ACAD_REACTORS
330
49
102
}
330
49
100
AcDbProxyObject
 90
      499
 91
      502
 93
      161
310
90A3122203D2031272D30224000000000000284000
  0
ACAD_PROXY_OBJECT
  5
67
102
{ACAD_REACTORS
330
49
102
}
330
49
100
AcDbProxyObject
 90
      499
 91
      502
 93
      257
310
90E312D312F3222203D2031272D30220000000000003E0FC000000000000284000
  0
ACAD_PROXY_OBJECT
  5
68
102
{ACAD_REACTORS
330
49
102
}
330
49
100
AcDbProxyObject
 90
      499
 91
      502
 93
      225
310
90A3322203D2031272D302200000000000002100000000000000284000
  0
ACAD_PROXY_OBJECT
  5
69
102
{ACAD_REACTORS
330
49
102
}
330
49
100
AcDbProxyObject
 90
      499
 91
      502
 93
      225
310
90A3622203D2031272D302200000000000006100000000000000284000
  0
ACAD_PROXY_OBJECT
  5
6A
102
{ACAD_REACTORS
330
49
102
}
330
49
100
AcDbProxyObject
 90
      499
 91
      502
 93
      249
310
90D31272D3022203D2031272D30220000000000000A100000000000000284000
  0
ACAD_PROXY_OBJECT
  5
2F
102
{ACAD_REACTORS
330
2A
102
}
330
2A
100
AcDbProxyObject
 90
      499
 91
      501
 93
      436
310
42CC9915DA5C99599C985B595049028333333333333E3BF0000000000000FB0107901411070040501600405405064090741402480A0340
1001
ACAD
1000
AcDbSavedByObjectVersion
1070
     0
  0
ACAD_PROXY_OBJECT
  5
31
102
{ACAD_REACTORS
330
2A
102
}
330
2A
100
AcDbProxyObject
 90
      499
 91
      501
 93
      500
310
424CD108121A5919195B90640502408333333333333E3BF0000000000000FB01079024090700405020000000000001110200405405064090740C02480A0340
1001
ACAD
1000
AcDbSavedByObjectVersion
1070
     0
  0
ACAD_PROXY_OBJECT
  5
30
102
{ACAD_REACTORS
330
2A
102
}
330
2A
100
AcDbProxyObject
 90
      499
 91
      501
 93
      436
310
42CCD915DA5C99599C985B595059028333333333333E3BF0000000000000FB0107901411070040501600405405064090741402480A0340
1001
ACAD
1000
AcDbSavedByObjectVersion
1070
     0
  0
ACAD_PROXY_OBJECT
  5
32
102
{ACAD_REACTORS
330
2A
102
}
330
2A
100
AcDbProxyObject
 90
      499
 91
      501
 93
      388
310
4150985CDA58D07406404333333333333E3BF0000000000000FB0107A41107004050150841D405064090741402480A0350
1001
ACAD
1000
AcDbSavedByObjectVersion
1070
     0
  0
ACAD_PROXY_OBJECT
  5
36
102
{ACAD_REACTORS
330
2A
102
}
330
2A
100
AcDbProxyObject
 90
      499
 91
      501
 93
      428
310
42109C9A59DA1D195B90C409028333333333333E3BF0000000000000FB010790141107004050150841D405064090741402480A029950
1001
ACAD
1000
AcDbSavedByObjectVersion
1070
     0
  0
ACAD_PROXY_OBJECT
  5
3A
102
{ACAD_REACTORS
330
2A
102
}
330
2A
100
AcDbProxyObject
 90
      499
 91
      501
 93
      452
310
42D0DBDB1BDC90DA185B99D95104090240C333333333333E3BF0000000000000FB0108901411070040501508421405064090741402480A0350
1001
ACAD
1000
AcDbSavedByObjectVersion
1070
     0
  0
ACAD_PROXY_OBJECT
  5
34
102
{ACAD_REACTORS
330
2A
102
}
330
2A
100
AcDbProxyObject
 90
      499
 91
      501
 93
      500
310
4290DBDB98D95C1D1D585B10940D028333333333333E3BF0000000000000FB0107902409070040501000000000000111010841D405064090740C02480A0340
1001
ACAD
1000
AcDbSavedByObjectVersion
1070
     0
  0
ACAD_PROXY_OBJECT
  5
35
102
{ACAD_REACTORS
330
2A
102
}
330
2A
100
AcDbProxyObject
 90
      499
 91
      501
 93
      412
310
40D11A5B50B409028333333333333E3BF0000000000000FB010790141107004050150841D405064090741402480A02677FFFFFD0
1001
ACAD
1000
AcDbSavedByObjectVersion
1070
     0
  0
ACAD_PROXY_OBJECT
  5
39
102
{ACAD_REACTORS
330
2A
102
}
330
2A
100
AcDbProxyObject
 90
      499
 91
      501
 93
      444
310
42D19858D95C185D1D195C9B90F409028333333333333E3BF0000000000000FB010790141107004050150841D405064090741402480A0350
1001
ACAD
1000
AcDbSavedByObjectVersion
1070
     0
  0
ACAD_PROXY_OBJECT
  5
2B
102
{ACAD_REACTORS
330
2A
102
}
330
2A
100
AcDbProxyObject
 90
      499
 91
      501
 93
      388
310
41119B185D240901404333333333333E3BF0000000000000F9010740A41107004050150841D405064090741402480A1B50
1001
ACAD
1000
AcDbSavedByObjectVersion
1070
     0
  0
ACAD_PROXY_OBJECT
  5
2C
102
{ACAD_REACTORS
330
2A
102
}
330
2A
100
AcDbProxyObject
 90
      499
 91
      501
 93
      476
310
43519B185D15DA5D1A115919D95CD0140901404333333333333E3BF0000000000000F9010740901411070040501600405405064090741402480A1B50
1001
ACAD
1000
AcDbSavedByObjectVersion
1070
     0
  0
ACAD_PROXY_OBJECT
  5
2D
102
{ACAD_REACTORS
330
2A
102
}
330
2A
100
AcDbProxyObject
 90
      499
 91
      501
 93
      412
310
41D1DBDD5C985D5910240902404333333333333E3BF0000000000000F9010740A411070040501641D405064090741402480A1B50
1001
ACAD
1000
AcDbSavedByObjectVersion
1070
     0
  0
ACAD_PROXY_OBJECT
  5
2E
102
{ACAD_REACTORS
330
2A
102
}
330
2A
100
AcDbProxyObject
 90
      499
 91
      501
 93
      500
310
4411DBDD5C985D5915DA5D1A115919D95CD0340902404333333333333E3BF0000000000000F9010740901411070040501600405405064090741402480A1B50
1001
ACAD
1000
AcDbSavedByObjectVersion
1070
     0
  0
ACAD_PROXY_OBJECT
  5
38
102
{ACAD_REACTORS
330
2A
102
}
330
2A
100
AcDbProxyObject
 90
      499
 91
      501
 93
      444
310
42D31A5B995C185D1D195C9B90E409028333333333333E3BF0000000000000FB010790141107004050750841D405064090741402483A0350
1001
ACAD
1000
AcDbSavedByObjectVersion
1070
     0
  0
ACAD_PROXY_OBJECT
  5
33
102
{ACAD_REACTORS
330
2A
102
}
330
2A
100
AcDbProxyObject
 90
      499
 91
      501
 93
      420
310
425499585B1A5CDD1A58D08409028333333333333E3BF0000000000000FB01079019070040501508421405064090741402480A1B40
1001
ACAD
1000
AcDbSavedByObjectVersion
1070
     0
  0
ACAD_PROXY_OBJECT
  5
37
102
{ACAD_REACTORS
330
2A
102
}
330
2A
100
AcDbProxyObject
 90
      499
 91
      501
 93
      412
310
41D51A1A58DAD95B90D409028333333333333E3BF0000000000000FB010790141107004050150C41D405064090741402480A0350
1001
ACAD
1000
AcDbSavedByObjectVersion
1070
     0
  0
ACAD_PROXY_OBJECT
  5
155
102
{ACAD_REACTORS
330
14C
102
}
330
14C
100
AcDbProxyObject
 90
      499
 91
      504
 93
       58
310
4196800000000000
  0
ACAD_PROXY_OBJECT
  5
16B
102
{ACAD_REACTORS
330
14C
102
}
330
14C
100
AcDbProxyObject
 90
      499
 91
      504
 93
      306
310
497A00C180079114D51653117A80C040079ECB811500550044400000000000003A80C040079F40
  0
ACAD_PROXY_OBJECT
  5
156
102
{ACAD_REACTORS
330
14C
102
}
330
14C
100
AcDbProxyObject
 90
      499
 91
      504
 93
      354
310
4AC0400980079ED18DD14E4C0D8CCD8B50D0910E4B4D0C91910B508CD1508B4DD08C8CCE4DD14CCC0CD08D9F40
  0
ACAD_PROXY_OBJECT
  5
14F
102
{ACAD_REACTORS
330
14C
102
}
330
14C
100
AcDbProxyObject
 90
      499
 91
      504
 93
       50
310
41404000000780
  0
ACAD_PROXY_OBJECT
  5
154
102
{ACAD_REACTORS
330
14C
102
}
330
14C
100
AcDbProxyObject
 90
      499
 91
      504
 93
       58
310
4196800100000000
  0
ACAD_PROXY_OBJECT
  5
151
102
{ACAD_REACTORS
330
14C
102
}
330
14C
100
AcDbProxyObject
 90
      499
 91
      504
 93
       90
310
429500468000000000000000
  0
ACAD_PROXY_OBJECT
  5
153
102
{ACAD_REACTORS
330
14C
102
}
330
14C
100
AcDbProxyObject
 90
      499
 91
      504
 93
       58
310
419680074A800000
  0
ACAD_PROXY_OBJECT
  5
152
102
{ACAD_REACTORS
330
14C
102
}
330
14C
100
AcDbProxyObject
 90
      499
 91
      504
 93
       90
310
429500464000000000000000
  0
ACAD_PROXY_OBJECT
  5
158
102
{ACAD_REACTORS
330
14C
102
}
330
14C
100
AcDbProxyObject
 90
      499
 91
      504
 93
       90
310
428A00000000000000000000
  0
ACAD_PROXY_OBJECT
  5
15B
102
{ACAD_REACTORS
330
14C
102
}
330
14C
100
AcDbProxyObject
 90
      499
 91
      504
 93
       90
310
429500400000000000000000
  0
ACAD_PROXY_OBJECT
  5
161
102
{ACAD_REACTORS
330
14C
102
}
330
14C
100
AcDbProxyObject
 90
      499
 91
      504
 93
      218
310
46828000000000000000000000000000000000000000000000000000
  0
ACAD_PROXY_OBJECT
  5
15D
102
{ACAD_REACTORS
330
14C
102
}
330
14C
100
AcDbProxyObject
 90
      499
 91
      504
 93
      218
310
46828000000000000000000000000000000000000000000000000000
  0
ACAD_PROXY_OBJECT
  5
160
102
{ACAD_REACTORS
330
14C
102
}
330
14C
100
AcDbProxyObject
 90
      499
 91
      504
 93
      218
310
46828000000000000000000000000000000000000000000000000000
  0
ACAD_PROXY_OBJECT
  5
15E
102
{ACAD_REACTORS
330
14C
102
}
330
14C
100
AcDbProxyObject
 90
      499
 91
      504
 93
      218
310
46828000000000000000000000000000000000000000000000000000
  0
ACAD_PROXY_OBJECT
  5
15F
102
{ACAD_REACTORS
330
14C
102
}
330
14C
100
AcDbProxyObject
 90
      499
 91
      504
 93
      218
310
46828000000000000000000000000000000000000000000000000000
  0
ACAD_PROXY_OBJECT
  5
15C
102
{ACAD_REACTORS
330
14C
102
}
330
14C
100
AcDbProxyObject
 90
      499
 91
      504
 93
      218
310
46828000000000000000000000000000000000000000000000000000
  0
ACAD_PROXY_OBJECT
  5
159
102
{ACAD_REACTORS
330
14C
102
}
330
14C
100
AcDbProxyObject
 90
      499
 91
      504
 93
       90
310
429500400000000000000000
  0
ACAD_PROXY_OBJECT
  5
15A
102
{ACAD_REACTORS
330
14C
102
}
330
14C
100
AcDbProxyObject
 90
      499
 91
      504
 93
       42
310
411180000000
  0
ACAD_PROXY_OBJECT
  5
150
102
{ACAD_REACTORS
330
14C
102
}
330
14C
100
AcDbProxyObject
 90
      499
 91
      504
 93
       50
310
41404000000780
  0
ACAD_PROXY_OBJECT
  5
14D
102
{ACAD_REACTORS
330
14C
102
}
330
14C
100
AcDbProxyObject
 90
      499
 91
      504
 93
       58
310
4196800040000000
  0
ACAD_PROXY_OBJECT
  5
14E
102
{ACAD_REACTORS
330
14C
102
}
330
14C
100
AcDbProxyObject
 90
      499
 91
      504
 93
       58
310
4196801180000000
  0
ACAD_PROXY_OBJECT
  5
164
102
{ACAD_REACTORS
330
14C
102
}
330
14C
100
AcDbProxyObject
 90
      499
 91
      504
 93
       90
310
429500400000000000000000
  0
ACAD_PROXY_OBJECT
  5
16A
102
{ACAD_REACTORS
330
14C
102
}
330
14C
100
AcDbProxyObject
 90
      499
 91
      504
 93
      218
310
46828000000000000000000000000000000000000000000000000000
  0
ACAD_PROXY_OBJECT
  5
166
102
{ACAD_REACTORS
330
14C
102
}
330
14C
100
AcDbProxyObject
 90
      499
 91
      504
 93
      218
310
46828000000000000000000000000000000000000000000000000000
  0
ACAD_PROXY_OBJECT
  5
169
102
{ACAD_REACTORS
330
14C
102
}
330
14C
100
AcDbProxyObject
 90
      499
 91
      504
 93
      218
310
46828000000000000000000000000000000000000000000000000000
  0
ACAD_PROXY_OBJECT
  5
167
102
{ACAD_REACTORS
330
14C
102
}
330
14C
100
AcDbProxyObject
 90
      499
 91
      504
 93
      218
310
46828000000000000000000000000000000000000000000000000000
  0
ACAD_PROXY_OBJECT
  5
168
102
{ACAD_REACTORS
330
14C
102
}
330
14C
100
AcDbProxyObject
 90
      499
 91
      504
 93
      218
310
46828000000000000000000000000000000000000000000000000000
  0
ACAD_PROXY_OBJECT
  5
165
102
{ACAD_REACTORS
330
14C
102
}
330
14C
100
AcDbProxyObject
 90
      499
 91
      504
 93
      218
310
46828000000000000000000000000000000000000000000000000000
  0
ACAD_PROXY_OBJECT
  5
162
102
{ACAD_REACTORS
330
14C
102
}
330
14C
100
AcDbProxyObject
 90
      499
 91
      504
 93
       90
310
429500400000000000000000
  0
ACAD_PROXY_OBJECT
  5
163
102
{ACAD_REACTORS
330
14C
102
}
330
14C
100
AcDbProxyObject
 90
      499
 91
      504
 93
       42
310
411180000000
  0
ACAD_PROXY_OBJECT
  5
157
102
{ACAD_REACTORS
330
14C
102
}
330
14C
100
AcDbProxyObject
 90
      499
 91
      504
 93
      354
310
4AC0400980079ED19051508C50CCCC8B514C0C4E4B4C4C510D4B4E4C8E508B4C0C10CC11118C8D4D9150CD1F40
  0
DICTIONARYVAR
  5
171
102
{ACAD_REACTORS
330
16C
102
}
330
16C
100
DictionaryVariables
280
     0
  1
1:1
  0
DICTIONARYVAR
  5
170
102
{ACAD_REACTORS
330
16C
102
}
330
16C
100
DictionaryVariables
280
     0
  1
80.000000
  0
DICTIONARYVAR
  5
16F
102
{ACAD_REACTORS
330
16C
102
}
330
16C
100
DictionaryVariables
280
     0
  1
5.000000
  0
ENDSEC
  0
EOF
